>
 >
Nightmare

Nightmare Guitar Tabs

Venom - Nightmare chords, tabs, tablatures, lyrics

Guitar lessons | Add/correct | Request | Top 50 tabs Artists:  A B C D E F G H I J K L M N O P Q R S T U V W X Y Z 0-9

Nightmare Guitar Tabs – Venom

CD, Sheet music, Poster

Do you like Nightmare? Share with your friends now
Tabs
Username: okregisterme

d-- - downstroke
u-- - upstroke
/ - slide up
(x) - don't pick note
p - pull-off
\ - slide down
% - rest
(xr) - listen to the recording for the rhythm and number of repeats

  intro - with volume down, turn up at end

  d------ u------ d------ u-- d------ u------ d------ u--

1---------0---------------0-----------0---------------0----
2-------0---0-----------0---0-------0---0-----------0---0--
3-----4-------4-------4-----------6-------6-------6--------
4---2-----------2---2-----------4-----------4---4----------
5-3---------------3-----------5---------------5------------

  d------ u------ d------ u-- d-------- u u---- d------ u--

1---------0---------------0-----------0-0-0-------------0----
2-------0---0-----------0---0-------0-------0---------0---0--
3-----4-------4-------4-----------6-----------6-----6--------
4---2-----------2---2-----------4-----------------4----------
5-3---------------3-----------5-----------------5------------

  d------ u------ d------

1---------0----------------------------
2-------0---0-----------0--------------
3-----4-------4-------4---0--5/(7)--7--
4---2-----------2---2--------5/(7)--7--  
5-3---------------3----------3/(5)--5-- 


  pre-verse and chorus

4-7/(9)-9-9-9--9p7-9p7-9p7----------------------5/(7)-7-7--------
5-5/(7)-7-7-7--7---7---7---9-9-9/(10)-10-10-10--3/(5)-5-5-5-5-7--
6--------------------------7-7-7/(8)--8--8--8-------------3-3-5--

  verse
 
3-5\--2----5\--3--------  
4-5\--2----5\--3---3-5--  
5-3\--0----3\--1---3-5--  
6------------------1-3--  

  pre-chorus
  
3-5---5---5--5--------------------------------------------- 
4-5---5---5--5----4/(5)---4/(5)---4/(5)---4/(5)---4/(5)----  
5-3-%-3---3--3--0-2/(3)-0-2/(3)-0-2/(3)-0-2/(3)-0-2/(3)-0--  x3
  
3-5---5---5--5--7--7--7--7--   
4-5---5---5--5--7--7--7--7--  
5-3-%-3---3--3--5--5--5--5--      

  fill 1
 
3-----9p7---7-6---6----------------  
4---9-----9-----7---7-5-7-4-5---4--  
5-7---------------------------7----  x3

3-----9p7---7-6---6----------------  
4---9-----9-----7---7-5-7-4-5-4-0--  
5-7--------------------------------  

  fill 2

3-4-----7------4-----2------9--  
4-4--4--7--7---4--4--2--2---9-- 
5-2--4--5--7-%-2--4--0--2-%-7--  
6----2-----5------2-----0---0--  

  bass solo rhythm

1-0----0------------0---0----0----0-------------------------------------
2-0----0------------0---0----0----0-------------------------------------
3-9----10-----------9---7----5----7--------9--9----9-9-9--9-9-9--9-9-9--
4-6----7------------6---4----2----4--------9--9----9-9-9--9-9-9--9-9-9--
5-7----8------------7---5----3----5--------7--7----7-7-7--7-7-7--7-7-7--
6-------------0-0-0--------------------0-0-0--0----0-0-0--0-0-0--0-0-0--

1-----------------
2-10-10-10--10-10-  
3-----------------
4-----------------
5-----------------
6-----------------

  fill 3

6-/\--

  outro 

3-9--9--9--9---9-------  
4-9--9--9--9---9------- 
5-7--7--7--7---7------- 
6-0--0--0--0-%-0-(xr)--





Comments


Popular Venom tabs & chords
Stand Up Bass Tabs
Welcome To Hell 2 Bass Tabs
Angeldust Chords
Countess Bathory Tabs
Resurrection Tabs
Rip Ride Tabs
Stand Up Tabs
Stand Up And Be Counted Tabs
Witching Hour Tabs
Witching Hour 1 Tabs


Song lyrics



↑ Back to top | Tablatures and chords are parodies/interpretations of the original songs. You may use it for private study, scholarship, research or language learning purposes only
© 2014 AZChords.com Contact us | Privacy policy | DMCA | Add/correct tabs | Request tabs | Top 50 tabs