>
 >
Manitou

Manitou Guitar Tabs

Venom - Manitou chords, tabs, tablatures, lyrics

Guitar lessons | Add/correct | Request | Top 50 tabs Artists:  A B C D E F G H I J K L M N O P Q R S T U V W X Y Z 0-9

Manitou Guitar Tabs – Venom

CD, Sheet music, Poster

Do you like Manitou? Share with your friends now
Tabs
-------------------------------------------------------------------------------
                             Manitou ver(2:57) - Venom
-------------------------------------------------------------------------------

TUNING:d A F C G D 

0:00
|-------------------------------------|
|-------------------------------------|
|-------------------------------------|
|-00-00-00-00-00-0-0-00-0-00-0-00-0---|
|-00-00-00-00-00-0-0-00-0-00-0-00-0---|
|-00-00-00-00-00-0-0-00-0-00-0-00-0---|

0:19
|-------------------------------|
|-------------------------------|
|-9-77---9-77---9-77---9-77-----|
|-9-77---9-77---9-77---9-77-----|
|-7-55---7-55---7-55---7-55-----|
|-------------------------------|

0:32
|---------------|
|---------------|
|---------------|
|-7-55---7-55---|
|-7-55---7-55---|
|-5-33---5-33---|

0:39
|--------------|
|--------------|
|-9-77---9-77--|
|-9-77---9-77--|
|-7-55---7-55--|
|--------------|

0:46
|---------------------|
|---------------------|
|---------------------|
|-0-0-00-0-00-0-00-0--|
|-0-0-00-0-00-0-00-0--|
|-0-0-00-0-00-0-00-0--|

1:01
|-------------------------------|
|-------------------------------|
|-9-77---9-77---9-77---9-77-----|
|-9-77---9-77---9-77---9-77-----|
|-7-55---7-55---7-55---7-55-----|
|-------------------------------|

1:14
|---------------|
|---------------|
|---------------|
|-7-55---7-55---|
|-7-55---7-55---|
|-5-33---5-33---|

1:21
|--------------|
|--------------|
|-9-77---9-77--|
|-9-77---9-77--|
|-7-55---7-55--|
|--------------|

1:27
|------------------------------------------------------------------------------|
|------------------------------------------------------------------------------|
|------------------------------------------------------------------------------|
|------------------------------------------------------------------------------|
|0-----0----0----0----0----0----0----0----0----0----0----0----0----0----0----0-|
|0-000000000000000000000000000000000000000000000000000000000000000000000000000-|


1:41
|----------------|
|----------------|
|-23-----23------|
|-23-----23------|
|-01-000-01-000--|x16

1:54
|----------|
|----------|
|----------|
|-00--00---|
|-00--00---|
|-00--00---|

1:58
|---------------|
|---------------|
|-9-77---9-77---|
|-9-77---9-77---|
|-7-55---7-55---|
|---------------|

2:05
|---------------------|
|---------------------|
|---------------------|
|-0-0-00-0-00-0-00-0--|
|-0-0-00-0-00-0-00-0--|
|-0-0-00-0-00-0-00-0--|

2:20
|-------------------------------|
|-------------------------------|
|-9-77---9-77---9-77---9-77-----|
|-9-77---9-77---9-77---9-77-----|
|-7-55---7-55---7-55---7-55-----|
|-------------------------------|

2:33
|---------------|
|---------------|
|---------------|
|-7-55---7-55---|
|-7-55---7-55---|
|-5-33---5-33---|

2:40
|--------------|
|--------------|
|-9-77---9-77--|
|-9-77---9-77--|
|-7-55---7-55--|
|--------------|

2:47
|----------|
|----------|
|----------|
|-00--00---|
|-00--00---|
|-00--00---|





Comments


Popular Venom tabs & chords
Kings Of Evil Bass Tabs
Stand Up Bass Tabs
Stand Up 3 Bass Tabs
Buried Alive 3 Tabs
Couldnt Think Of One Tabs
Countess Bathory Tabs
Countess Bathory 2 Tabs
Countess Bathory 3 Tabs
Nightmare Tabs
Resurrection Tabs


Song lyrics



↑ Back to top | Tablatures and chords are parodies/interpretations of the original songs. You may use it for private study, scholarship, research or language learning purposes only
© 2014 AZChords.com Contact us | Privacy policy | DMCA | Add/correct tabs | Request tabs | Top 50 tabs