» » »

Venom, Kings Of Evil Bass tabs (ver.1)

Artists:  A B C D E F G H I J K L M N O P Q R S T U V W X Y Z # 

Kings Of Evil Bass tabs (ver.1)

Venom Tabs
 Rating:
4/5 (4 votes)
Kings Of Evil lessons Tabs too difficult? Try these video lessons and learn fast
                
Tuning: Standard

Intro:
do the slide really fast and it sounds good enough

G|-------|
D|-------|
A|-------|
E|-1/12\1|

G|--------------------------------|
D|--------------------------------|
A|--------------------------------|
E|--1-2--1-2--1-2---1-2--1-2--4-2-| x2


do the slide again

G|--------------------------------------------------------|
D|--------------------------------------------------------|
A|--------------------------------------------------------|
E|--1-2--1-2--1-2---222222-4-2--1-2--1-2-1-2---222222-4-2-|

do the slide again

G|--------------------------------------------------------|
D|--------------------------------------------------------|
A|--------------------------------------------------------|
E|--1-2--1-2--1-2---222222-4-2--1-2--1-2-1-2---222222-4-2-|

guitar and drums come in
During scream
G|--------------------------------|
D|--------------------------------|
A|--------------------------------|
E|--1-2--1-2--1-2---1-2--1-2--4-2-| x2

then slide again


G|--------------------------------------------------------|
D|--------------------------------------------------------|
A|--------------------------------------------------------|
E|--1-2--1-2--1-2---222222-4-2--1-2--1-2-1-2---222222-4-2-|

then slide again


G|--------------------------------------------------------|
D|--------------------------------------------------------|
A|--------------------------------------------------------|
E|--1-2--1-2--1-2---222222-4-2--1-2--1-2-1-2---222222-4-2-|

slide really fast before the chorus

chorus
G|-----------------------|
D|-----------------------|
A|-----------------------|
E|--0--6~--3~--0--6~--8~-|

G|-----------------------|
D|-----------------------|
A|-----------------------|
E|--0--6~--3~--0--6~--3--|

G|---------|
D|---------|
A|---------|
E|-0-0--0--|


G|-----------------------| x2 after first time theres a little guitar fill
D|-----------------------|
A|-2---------------------|
E|-----3-2-0-0--0--------|

after second play this comes in

bass fill

G|----------------|
D|----------------|
A|----------------|
E|--2h3p2h3p2h3p2-|

 then back to this
G|-----------------------| then |-------|
D|-----------------------|      |-------|
A|-2---------------------|      |-2-----|
E|-----3-2-0-0--0--------|      |---3-2-|

play the chorus underneath guitar solo
G|-----------------------|
D|-----------------------|
A|-----------------------|
E|--0--6~--3~--0--6~--8~-|

G|-----------|x2
D|-----------|
A|-----------|
E|--6~--8~-5~|


G|-----------------------------------| x2
D|-----------------------------------|
A|--3/2-3/2---3/2-5/3---3/2-3/2--0---|
E|-----------------------------------|

then back to

G|--------------------------------|
D|--------------------------------|
A|--------------------------------|
E|--1-2--1-2--1-2---1-2--1-2--4-2-| x2

do the slide again

G|--------------------------------------------------------|
D|--------------------------------------------------------|
A|--------------------------------------------------------|
E|--1-2--1-2--1-2---222222-4-2--1-2--1-2-1-2---222222-4-2-|

slide again

G|--------------------------------------------------------|
D|--------------------------------------------------------|
A|--------------------------------------------------------|
E|--1-2--1-2--1-2---222222-4-2--1-2--1-2-1-2---222222-4-2-|

chorus
G|-----------------------|
D|-----------------------|
A|-----------------------|
E|--0--6~--3~--0--6~--8~-|

play chorus right to then and do this

G|------|
D|------|
A|------|
E|-0-00-|

thanks. this is pretty accurate.. id say 95% but it could be more.. but im sure its 
enough. i love this song and have been working on this tab for hours. playing it out as i 
cheers.

enjoy! leave a comment too.
            
Submit corrections

comments powered by Disqus
↑ Back to top | Venom Bass for Kings Of Evil. Lyrics for acoustic guitar and electric guitar. Tablatures and chords are parodies/interpretations of the original songs. You may use it for private study, scholarship, research or language learning purposes only