» » »

Venom, Genocide Tabs (ver.1)

Artists:  A B C D E F G H I J K L M N O P Q R S T U V W X Y Z # 

Genocide Tabs (ver.1)

Venom Tabs
 Rating:
4/5 (4 votes)
Genocide lessons Tabs too difficult? Try these video lessons and learn fast
                -------------------------------------------------------------------------------
-------------------------------------------------------------------------------

TUNING:d A F C G D 

0:00
|--------------------------------|
|--------------------------------|
|-9-9-9/12--11\7/9---------------|
|-9-9-9/12--11\7/9---------------|
|-7-7-7/10---9\5/7---------------|
|--------------------------------|

0:07
|----------------------------------------|
|----------------------------------------|
|-----12\11-----9\8------5/7------7/9----|
|-----12\11-----9\8------5/7------7/9----|
|-000-10\9--000-7\6--000-3/5--000-5/7----|
|----------------------------------------|x2

0:14
|--------------------|
|--------------------|
|-11---5-7-9---------|
|-11---5-7-9---------|
|--9---3-5-7---------|
|--------------------|

0:17
|----------------------------------------|
|----------------------------------------|
|-----12\11-----9\8------5/7------7/9----|
|-----12\11-----9\8------5/7------7/9----|
|-000-10\9--000-7\6--000-3/5--000-5/7----|
|----------------------------------------|

0:20
|--------------------|
|--------------------|
|-11---5-7-9---------|
|-11---5-7-9---------|
|--9---3-5-7---------|
|--------------------|

0:24
|----------------------------------------|
|----------------------------------------|
|-----12\11-----9\8------5/7------7/9----|
|-----12\11-----9\8------5/7------7/9----|
|-000-10\9--000-7\6--000-3/5--000-5/7----|
|----------------------------------------|x2

0:31
|--------------------------------------------|
|--------------------------------------------|
|-9-9-9-9-7-7-7-7-------------------------2--|
|-9-9-9-9-7-7-7-7-9-9-9-9-7-7-7-7-5-5-5-5-2--|
|-7-7-7-7-5-5-5-5-9-9-9-9-7-7-7-7-5-5-5-5-0--|
|-----------------7-7-7-7-5-5-5-5-3-3-3-3----|

0:41
|----------------------------------------|
|----------------------------------------|
|-----12\11-----9\8------5/7------7/9----|
|-----12\11-----9\8------5/7------7/9----|
|-000-10\9--000-7\6--000-3/5--000-5/7----|
|----------------------------------------|x2

0:48
|--------------------|
|--------------------|
|-11---5-7-9---------|
|-11---5-7-9---------|
|--9---3-5-7---------|
|--------------------|

0:52
|----------------------------------------|
|----------------------------------------|
|-----12\11-----9\8------5/7------7/9----|
|-----12\11-----9\8------5/7------7/9----|
|-000-10\9--000-7\6--000-3/5--000-5/7----|
|----------------------------------------|

0:55
|--------------------|
|--------------------|
|-11---5-7-9---------|
|-11---5-7-9---------|
|--9---3-5-7---------|
|--------------------|

0:59
|----------------------------------------|
|----------------------------------------|
|-----12\11-----9\8------5/7------7/9----|
|-----12\11-----9\8------5/7------7/9----|
|-000-10\9--000-7\6--000-3/5--000-7/9----|
|----------------------------------------|x2

1:06
|-----------------------------------|
|-----------------------------------|
|-7/9-----7----7----7-7/12-11-------|
|-7/9-----7----7----7-7/12-11-------|
|-5/7-555555555555555-5/10-9--------|
|-----------------------------------|x2

1:13
|-------------------------------|
|-------------------------------|
|-9-11-12----------9-7-6--------|
|-9-11-12----------9-7-6--------|
|-7-9--10-00000000-7-5-4--------|
|-------------------------------|


2:03
|----------------------------------------|
|----------------------------------------|
|-----12\11-----9\8------5/7------7/9----|
|-----12\11-----9\8------5/7------7/9----|
|-000-10\9--000-7\6--000-3/5--000-5/7----|
|----------------------------------------|x2

2:10
|--------------------|
|--------------------|
|-11---5-7-9---------|
|-11---5-7-9---------|
|--9---3-5-7---------|
|--------------------|

2:13
|----------------------------------------|
|----------------------------------------|
|-----12\11-----9\8------5/7------7/9----|
|-----12\11-----9\8------5/7------7/9----|
|-000-10\9--000-7\6--000-3/5--000-5/7----|
|----------------------------------------|

2:17
|--------------------|
|--------------------|
|-11---5-7-9---------|
|-11---5-7-9---------|
|--9---3-5-7---------|
|--------------------|

2:20
|----------------------------------------|
|----------------------------------------|
|-----12\11-----9\8------5/7------7/9----|
|-----12\11-----9\8------5/7------7/9----|
|-000-10\9--000-7\6--000-3/5--000-5/7----|
|----------------------------------------|x2

2:27
|--------------------------------------------|
|--------------------------------------------|
|-9-9-9-9-7-7-7-7-------------------------2--|
|-9-9-9-9-7-7-7-7-9-9-9-9-7-7-7-7-5-5-5-5-2--|
|-7-7-7-7-5-5-5-5-9-9-9-9-7-7-7-7-5-5-5-5-0--|
|-----------------7-7-7-7-5-5-5-5-3-3-3-3----|


2:38
|----------------------------------------|
|----------------------------------------|
|-----12\11-----9\8------5/7------7/9----|
|-----12\11-----9\8------5/7------7/9----|
|-000-10\9--000-7\6--000-3/5--000-5/7----|
|----------------------------------------|x5
            
Submit corrections

comments powered by Disqus
↑ Back to top | Venom Tabs for Genocide. Lyrics for acoustic guitar and electric guitar. Tablatures and chords are parodies/interpretations of the original songs. You may use it for private study, scholarship, research or language learning purposes only