>
 >
Bursting Out

Bursting Out Guitar Tabs

Venom - Bursting Out chords, tabs, tablatures, lyrics

Guitar lessons | Add/correct | Request | Top 50 tabs Artists:  A B C D E F G H I J K L M N O P Q R S T U V W X Y Z 0-9

Bursting Out Guitar Tabs – Venom

CD, Sheet music, Poster

Do you like Bursting Out? Share with your friends now
Tabs
PROPS GO TO: Lanchisky79 / Welcome to Hell


                                 Venom


Tune down to C# (down 1.5 steps)

h/p = hammer on/pull off
 "  = tremelo pick
/ \ = slide up/down
 .  = palm mute


Intro: A x2 B x1, A x1, C x1

Intro part A (clean tone)          Intro part B (clean tone)
e|--------------------------------|---------0-----------------------|
B|-------0------0-------5-------7-|-------0---0-----------5-------7-|
G|-----2------2-------5-------7---|-----2-------2-------5-------7---|
D|---2------2-------5-------7-----|---2-----------2---5-------7-----|
A|-0--------------3-------5-------|-0---------------3-------5-------|
E|--------------------------------|---------------------------------|

Intro part C (distorted)
e|---------------------------------------------------|
B|---------------------------------------------------|
G|-2-------------------------------------------------|
D|-2-------------------------------------------------|
A|-0-------0"-------h2p0h3p0h2p0h3p0h2p0h3p0h2p0h3p0-|
E|---------------------------------------------------|
           .
 cont..
e|----------------------------------|
B|----------------------------------|
G|----------------------------------|
D|----------------------------------|
A|-h2p0h3p0h2p0h3p0h2p0h3p0h2p0h3p0-|
E|----------------------------------|

Main Riff                            (x2) Ending 1 Ending 2
e|---------------------------------------|-------|-------------------|
B|---------------------------------------|-------|-------------------|
G|---------------------------------------|-------|-7/9---------------|
D|-2------5-\2------7-\2------5-\2-------|-5-5/7-|-7/9---------------|
A|-0-000003-\0-000005-\0-000003-\0-00000-|-3-3/5-|-5/7---------------|
E|---------------------------------------|-------|-------------------|
     .....     .....     .....     .....

Verse
e|-----------------------------------|
B|-----------------------------------|
G|-----------------7/9---------------|
D|-2---------------7/9---------------|
A|-0---------------5/7---------------|
E|-----------------------------------|

Pre-Chorus
e|----------------------------|
B|----------------------------|
G|-9-997-/9-997-/9-9977-7-7-7-|
D|-9-997-/9-997-/9-9977-7-7-7-|
A|-7-775-/7-775-/7-7755-5-5-5-|
E|----------------------------|

Chorus
e|-------------------------------------------------|
B|-------------------------------------------------|
G|-5-----------------------------------------------|
D|-5-------5---------------------------------------|
A|-3-------5-------2p0h3p0h2p0h3p0h2p0h3p0h2p0h3p0-|
E|---------3---------------------------------------|

  cont..
e|--------------------------------------------------|
B|--------------------------------------------------|
G|----------------------------------5---------------|
D|----------------------------------5-------5-------|
A|-h2p0h3p0h2p0h3p0h2p0h3p0h2p0h3p0-3-------5-------|
E|------------------------------------------3-------|

Pre-Solo
e|----------------------------|----------|----------|-----------------------|
B|----------------------------|----------|----------|-----------------------|
G|-9-7-7-7779-7-7-7779-9-7-9\-|-5-5-4-5\-|----------|-9-9-7-9-9-9-7-7-7-777-|
D|-9-7-7-7779-7-7-7779-9-7-9\-|-5-5-4-5\-|-7-7-5-7\-|-9-9-7-9-9-9-7-7-7-777-|
A|-7-5-5-5557-5-5-5557-7-5-7\-|-3-3-2-3\-|-7-7-5-7\-|-7-7-5-7-7-7-5-5-5-555-|
E|----------------------------|----------|-5-5-3-5\-|-----------------------|

Solo Backing
e|-------------------------------------------------------------------|
B|-------------------------------------------------------------------|
G|-------------------------------------------------------------------|
D|-------------------------------------------------------------------|
A|-7"------10"-9"-5"------8"-7"-3"-------2"-------7-5-7-5757-5-7-575-|
E|-------------------------------------------------------------------|

e|------------------------------------------------|
B|------------------------------------------------|
G|------------------------------------------------|
D|------------------------------------------------|
A|-7"------10"-9"-5"------8"-7"-3"-------2"-------|
E|------------------------------------------------|
Note: I did this on my guitar, but it is quite likely played on a bass one
octave higher.

Coda
e|-----------------------|
B|-----------------------|
G|-9--9-9-9-9--9"--------|
D|-9--9-9-9-9--9"--------|
A|-7--7-7-7-7--7"--------|
E|-----------------------|

--





Comments


Popular Venom tabs & chords
Kings Of Evil Bass Tabs
Stand Up 1 Bass Tabs
Armageddon Tabs
Black Metal Tabs
Black Metal 1 Tabs
Bloodlust Tabs
Couldnt Think Of One Tabs
Countess Bathory 2 Tabs
Warhead Tabs
Witching Hour 1 Tabs


Song lyrics



↑ Back to top | Tablatures and chords are parodies/interpretations of the original songs. You may use it for private study, scholarship, research or language learning purposes only
© 2014 AZChords.com Contact us | Privacy policy | DMCA | Add/correct tabs | Request tabs | Top 50 tabs