» » »

Venom, Black Metal Tabs (ver.2)

Artists:  A B C D E F G H I J K L M N O P Q R S T U V W X Y Z # 

Black Metal Tabs (ver.2)

Venom Tabs
 Rating:
3.7/5 (6 votes)
Black Metal lessons Tabs too difficult? Try these video lessons and learn fast
                VENOM - BLACK METAL
                     From the Album BLACK METAL
                     Copyright 1982 - NEAT RECORDS
                     Version 1.0 - (APR. - 2001)


For Questions, Comments, Newest Version, or Corrections contact

Check Out Death Warp, With More Transcriptions On It:

..  - palm mute          /  - slide up to
   - slide down to      ~  - vibrato
 h  - hammer on          b  - bend
 p  - pull off            Suffixes for bend
                          ph - pinch harmonic
                           f - full bend    h - half bend
*  - see comment           r - release      t - tap bend
X  - percussion mute       ~ - vibrato bend
@  - slight palm mute     () - ghost note, sustained note

Tune Gtr to C#


Riff A
|--------------------------------------------------------|
|--------------------------------------------------------|
|--------------------------------------------9-9---------| 
|--5----------4----------3-------------------9-9---------| 
|--3-00000000-2-00000000-1-00000000-5-2------7-7---------|
|-----------------------------------3-0-0000-------------|

Riff B
|-----------------------------------------------|
|-----------------------------------------------|
|-----------------------------------------------| 
|--4--------5--------2--------2-4-5-4-5-4-------| 
|--2-222222-3-222222-0-222222-0-2-3-2-3-2-------|
|-----------------------------------------------|

Riff C
|--------------------------------------------------------------------|
|--2-2--4--5--9-7--2-2--4--5--9-7------------------------------------|
|--2-2--4--5--9-7--2-2--4--5--9-7------------------------------------|
|--0-0--2--3--7-5--0-0--2--3--7-5-------------2-----2-----2-----2--2-| 
|--0-0--2--3--7-5--0-0--2--3--7-5--000000-000-0-000-0-000-0-000-0--2-|
|------------------------------------------------------------------0-|

Riff D                                                                    
|----------------------------|
|----------------------------|
|--------------7--9--(9)-----| 
|--2-5---5--7--7--9--(9)-----| 
|--2-5---5--7--5--7--(7)-----|
|--0-3---3--5----------------|

Riff E
|--------------------------------------------------------------|
|--------------------------------------------------------------|
|----------------------------------------------------9--7------|
|----------------------2-2-4-5-----------------------9--7------|
|--2222-2222-2222-2222-0-0-2-3--2222-2222-2222-2222--7--5------|
|--------------------------------------------------------------|

Riff F
|--------------------------------------------------------------------|
|--------------------------------------------------------------------|
|--------------------------------------------------------------9-----|
|--------------------------------------------------------------9-----|
|--3p03p03p03p0p30-etc-2222-2222-2222-2222-3p03p03p0p30p30-etc-7-----|
|--------------------------------------------------------------------|
        
            
Submit corrections

comments powered by Disqus
↑ Back to top | Venom Tabs for Black Metal. Lyrics for acoustic guitar and electric guitar. Tablatures and chords are parodies/interpretations of the original songs. You may use it for private study, scholarship, research or language learning purposes only