» » »

Vennaskond, Yo Tabs (ver.1)

Artists:  A B C D E F G H I J K L M N O P Q R S T U V W X Y Z # 

Yo Tabs (ver.1)

Vennaskond Tabs
Rating:
5/5 (1 vote)
Yo lessons Tabs too difficult? Try these video lessons and learn fast
                Vennaskond - Yo


Intro
e|------------0-0--2--2-2-2--3-3----------0-0--3--3-3-3--3-3-3---------------|
B|--3--3-3-3--0-0--3--3-3-3--3-3--3--3-3--0-0--3--3-3-3--3-3-3---------------|
G|--4--4-4-4--2-2--2--2-2-2--0-0--4--4-4--2-2--0--0-0-0--0-0-0---------------|
D|--4--4-4-4--2-2--0--0-0-0--0-0--4--4-4--2-2--0--0-0-0--0-0-0---------------| X2
A|--2--2-2-2--0-0------------2-2--2--2-2--0-0--2--2-2-2--2-2-2---------------|
E|---------------------------3-3---------------3--3-3-3--3-3-3---------------|



First violin part
e|--20-18-20------------------20--------------17-19-----------------------------20-18 20|
B|-------------20-18----18-20--------19-19-19--------20-20-18----18-20-18-15-17---------|
G|-------------------20----------20---------------------------20------------------------|
D|--------------------------------------------------------------------------------------|
A|--------------------------------------------------------------------------------------|
E|--------------------------------------------------------------------------------------|


Backing for Verse
e|----------0-0--3--3-3-3--3-3-3---------------|
B|--3--3-3--0-0--3--3-3-3--3-3-3---------------|
G|--4--4-4--2-2--0--0-0-0--0-0-0---------------|
D|--4--4-4--2-2--0--0-0-0--0-0-0---------------| Over and Over
A|--2--2-2--0-0--2--2-2-2--2-2-2---------------|
E|---------------3--3-3-3--3-3-3---------------|


Next Violin Part
e|---------------------------------------------------------------------------|
B|-----12-12-12-------------------12-12-12-----------------------------------|
G|--------------14-16-14-16----------------14-16-14-16-----------------------|
D|--12-------------------------12----------------------12--------------------|X4
A|---------------------------------------------------------------------------|
E|---------------------------------------------------------------------------|



Backing for pre-verse
e|----------0-0--3--3-3-3--3-3-3---------------|
B|--3--3-3--0-0--3--3-3-3--3-3-3---------------|
G|--4--4-4--2-2--0--0-0-0--0-0-0---------------|
D|--4--4-4--2-2--0--0-0-0--0-0-0---------------| X2
A|--2--2-2--0-0--2--2-2-2--2-2-2---------------|
E|---------------3--3-3-3--3-3-3---------------|


Next Violin Part
e|---------------------------------------------------------------------------|
B|-----12-12-12-------------------12-12-12-----------------------------------|
G|--------------14-16-14-16----------------14-16-14-16-----------------------|
D|--12-------------------------12----------------------12--------------------|
A|---------------------------------------------------------------------------|
E|---------------------------------------------------------------------------|

Verse 1
Play each of these chords about four times in the progression. I the chords there
twice, it means play it double the amount.
e|-----2--3--0--3--3--2--0-----------2--0--3--2--2--3--0---------------------|
B|--3--3--3--0--3--3--3--1--3--3--3--3--0--3--2--2--3--0--3--3---------------|
G|--4--2--0--0--0--0--2--2--4--4--4--2--0--0--3--3--0--2--4--4---------------|
D|--4--0--0--2--0--0--0--2--4--4--4--0--2--0--4--4--0--2--4--4---------------|
A|--2-----2--2--2--2-----0--2--2--2-----2--2--4--4--2--0--2--2---------------|
E|--------3--0--3--3--------------------0--3--2--2--3------------------------|



Backing for Verse
e|----------0-0--3--3-3-3--3-3-3---------------|
B|--3--3-3--0-0--3--3-3-3--3-3-3---------------|
G|--4--4-4--2-2--0--0-0-0--0-0-0---------------|
D|--4--4-4--2-2--0--0-0-0--0-0-0---------------| Over and Over
A|--2--2-2--0-0--2--2-2-2--2-2-2---------------|
E|---------------3--3-3-3--3-3-3---------------|


Next Violin Part
e|---------------------------------------------------------------------------|
B|-----12-12-12-------------------12-12-12-----------------------------------|
G|--------------14-16-14-16----------------14-16-14-16-----------------------|
D|--12-------------------------12----------------------12--------------------|X4
A|---------------------------------------------------------------------------|
E|---------------------------------------------------------------------------|


Verse 2
Play each of these chords about four times in the progression. I the chords there
twice, it means play it double the amount.
e|-----2--3--0--3--3--2--0-----------2--0--3--2--2--3--0---------------------|
B|--3--3--3--0--3--3--3--1--3--3--3--3--0--3--2--2--3--0--3--3---------------|
G|--4--2--0--0--0--0--2--2--4--4--4--2--0--0--3--3--0--2--4--4---------------|
D|--4--0--0--2--0--0--0--2--4--4--4--0--2--0--4--4--0--2--4--4---------------|
A|--2-----2--2--2--2-----0--2--2--2-----2--2--4--4--2--0--2--2---------------|
E|--------3--0--3--3--------------------0--3--2--2--3------------------------|


Bridge type thing
e|--2--2-2-2--0-0-0--1-1-1-1-1-1-1-1-----------------------------------------|
B|--3--3-3-3--1-1-1--1-1-1-1-1-1-1-1-----------------------------------------|
G|--2--2-2-2--0-0-0--3-3-3-3-3-3-3-3-----------------------------------------|
D|--0--0-0-0--2-2-2--2-2-2-2-2-2-2-2-----------------------------------------|X4
A|------------3-3-3--2-2-2-2-2-2-2-2-----------------------------------------|
E|-------------------1-1-1-1-1-1-1-1-----------------------------------------|

Breakdown thing

e|------------0-0--2--2-2-2--3-3----------0-0--3--3-3-3--3-3-3---------------|
B|--3--3-3-3--0-0--3--3-3-3--3-3--3--3-3--0-0--3--3-3-3--3-3-3---------------|
G|--4--4-4-4--2-2--2--2-2-2--0-0--4--4-4--2-2--0--0-0-0--0-0-0---------------|
D|--4--4-4-4--2-2--0--0-0-0--0-0--4--4-4--2-2--0--0-0-0--0-0-0---------------| X2
A|--2--2-2-2--0-0------------2-2--2--2-2--0-0--2--2-2-2--2-2-2---------------|
E|---------------------------3-3---------------3--3-3-3--3-3-3---------------|


Violin lead
e|--20-18-20------------------20--------------17-19-----------------------------20-18 20|
B|-------------20-18----18-20--------19-19-19--------20-20-18----18-20-18-15-17---------|
G|-------------------20----------20---------------------------20------------------------|
D|--------------------------------------------------------------------------------------|
A|--------------------------------------------------------------------------------------|
E|--------------------------------------------------------------------------------------|


Then as it fades out, play the same backing, with this:
e|---------------------------------------------------------------------------|
B|--12-10-12---12-10-12------------------------------------------------------|
G|-------------------------9-7-9---------------------------------------------|
D|----------------------------------9-7-9------------------------------------|
A|---------------------------------------------------------------------------|
E|---------------------------------------------------------------------------|
            
Submit corrections

comments powered by Disqus
↑ Back to top | Vennaskond Tabs for Yo. Lyrics for acoustic guitar and electric guitar. Tablatures and chords are parodies/interpretations of the original songs. You may use it for private study, scholarship, research or language learning purposes only