» » »

Vennaskond, Marianne Tabs (ver.1)

Artists:  A B C D E F G H I J K L M N O P Q R S T U V W X Y Z # 

Marianne Tabs (ver.1)

Vennaskond Tabs
 Rating:
4.3/5 (6 votes)
Marianne lessons Tabs too difficult? Try these video lessons and learn fast
1
                
This song is somewhat repetivive, but still good.  I left out one or two of the violin
riffs, although if they're badly needed, I'll gladly edit them in.

Intro
e|---------------------------------------------------------------------------|
B|---------------------------------------------------------------------------|
G|-----6-----6-----6-----6---7-4-6-----6-----6-----6-----6-----6-------------|
D|---------------------------------------------------------------------------|
A|-0-0---0-0---0-0---0-0---0-------0-0---0-0---0-0---0-0---0-0---------------|
E|---------------------------------------------------------------------------|

Intro part 2
Guitar 1
e|---------------------------------------------------------------------------|    
B|---------------------------------------------------------------------------|
G|-7-7-7-7-7-7-7-71111111111111111-7-7-7-7-7-7-7-7---------------------------|
D|-7-7-7-7-7-7-7-71111111111111111-7-7-7-7-7-7-7-7-7-7-7-7-7-7-7-7-----------|
A|-5-5-5-5-5-5-5-5-9-9-9-9-9-9-9-9-5-5-5-5-5-5-5-5-7-7-7-7-7-7-7-7-----------|
E|-------------------------------------------------5-5-5-5-5-5-5-5-----------|

Guitar 2                                                                        X2
e|---------------------------------------------------------------------------|
B|--7-7-5-7--5--7--5--7--9-10\7~---7-7-5-7--5--7--5--5-----------------------|
G|---------------------------------------------------------------------------|
D|------------------------------------------------------7--9~----------------|
A|---------------------------------------------------------------------------|
E|---------------------------------------------------------------------------|


e|---------------------------------------------------------------------------|
B|---------------------------------------------------------------------------|
G|--------7-7-7--6-6-6~----7-7-7---------------------------------------------|
D|-7-7-7--7-7-7--6-6-6~----7-7-7-7-7-7-2-2-2-2-2-2-2-------------------------|
A|-7-7-7--5-5-5--4-4-4~----5-5-5-7-7-7-2-2-2-2-2-2-2-------------------------|
E|-5-5-5-------------------------5-5-5-0-0-0-0-0-0-0-------------------------|


e|---------------------------------------------------------------------------|
B|---------------------------------------------------------------------------|
G|-----------------9-9-9-9-9-9-9-9-7-7-7-7-7-7-7-7-9-9-9-9-9-9-9-9-----------|
D|-7-7-7-7-7-7-7-7-9-9-9-9-9-9-9-9-7-7-7-7-7-7-7-7-9-9-9-9-9-9-9-9-----------|  X2
A|-7-7-7-7-7-7-7-7-7-7-7-7-7-7-7-7-5-5-5-5-5-5-5-5-7-7-7-7-7-7-7-7-----------|
E|-5-5-5-5-5-5-5-5-----------------------------------------------------------|

Guitar 1
e|---------------------------------------------------------------------------|    
B|---------------------------------------------------------------------------|
G|-7-7-7-7-7-7-7-71111111111111111-7-7-7-7-7-7-7-7---------------------------|
D|-7-7-7-7-7-7-7-71111111111111111-7-7-7-7-7-7-7-7-7-7-7-7-7-7-7-7-----------|
A|-5-5-5-5-5-5-5-5-9-9-9-9-9-9-9-9-5-5-5-5-5-5-5-5-7-7-7-7-7-7-7-7-----------|
E|-------------------------------------------------5-5-5-5-5-5-5-5-----------|

Guitar 2                                                                        X2
e|---------------------------------------------------------------------------|
B|--7-7-5-7--5--7--5--7--9-10\7~---7-7-5-7--5--7--5--5-----------------------|
G|---------------------------------------------------------------------------|
D|------------------------------------------------------7--9~----------------|
A|---------------------------------------------------------------------------|
E|---------------------------------------------------------------------------|


e|---------------------------------------------------------------------------|
B|---------------------------------------------------------------------------|
G|--------7-7-7--6-6-6~----7-7-7---------------------------------------------|
D|-7-7-7--7-7-7--6-6-6~----7-7-7-7-7-7-2-2-2-2-2-2-2-------------------------|
A|-7-7-7--5-5-5--4-4-4~----5-5-5-7-7-7-2-2-2-2-2-2-2-------------------------|
E|-5-5-5-------------------------5-5-5-0-0-0-0-0-0-0-------------------------|



e|---------------------------------------------------------------------------|
B|---------------------------------------------------------------------------|
G|-----------------9-9-9-9-9-9-9-9-7-7-7-7-7-7-7-7-9-9-9-9-9-9-9-9-----------|
D|-7-7-7-7-7-7-7-7-9-9-9-9-9-9-9-9-7-7-7-7-7-7-7-7-9-9-9-9-9-9-9-9-----------|  X2
A|-7-7-7-7-7-7-7-7-7-7-7-7-7-7-7-7-5-5-5-5-5-5-5-5-7-7-7-7-7-7-7-7-----------|
E|-5-5-5-5-5-5-5-5-----------------------------------------------------------|

Guitar 1
e|---------------------------------------------------------------------------|    
B|---------------------------------------------------------------------------|
G|-7-7-7-7-7-7-7-71111111111111111-7-7-7-7-7-7-7-7---------------------------|
D|-7-7-7-7-7-7-7-71111111111111111-7-7-7-7-7-7-7-7-7-7-7-7-7-7-7-7-----------|
A|-5-5-5-5-5-5-5-5-9-9-9-9-9-9-9-9-5-5-5-5-5-5-5-5-7-7-7-7-7-7-7-7-----------|
E|-------------------------------------------------5-5-5-5-5-5-5-5-----------|

Guitar 2                                                                        X2
e|---------------------------------------------------------------------------|
B|--7-7-5-7--5--7--5--7--9-10\7~---7-7-5-7--5--7--5--5-----------------------|
G|---------------------------------------------------------------------------|
D|------------------------------------------------------7--9~----------------|
A|---------------------------------------------------------------------------|
E|---------------------------------------------------------------------------|


e|---------------------------------------------------------------------------|
B|---------------------------------------------------------------------------|
G|--------7-7-7--6-6-6~----7-7-7---------------------------------------------|
D|-7-7-7--7-7-7--6-6-6~----7-7-7-7-7-7-2-2-2-2-2-2-2-------------------------|
A|-7-7-7--5-5-5--4-4-4~----5-5-5-7-7-7-2-2-2-2-2-2-2-------------------------|
E|-5-5-5-------------------------5-5-5-0-0-0-0-0-0-0-------------------------|


e|---------------------------------------------------------------------------|
B|---------------------------------------------------------------------------|
G|-----------------9-9-9-9-9-9-9-9-7-7-7-7-7-7-7-7-9-9-9-9-9-9-9-9-----------|
D|-7-7-7-7-7-7-7-7-9-9-9-9-9-9-9-9-7-7-7-7-7-7-7-7-9-9-9-9-9-9-9-9-----------|  X2
A|-7-7-7-7-7-7-7-7-7-7-7-7-7-7-7-7-5-5-5-5-5-5-5-5-7-7-7-7-7-7-7-7-----------|
E|-5-5-5-5-5-5-5-5-----------------------------------------------------------|


Guitar 1
e|---------------------------------------------------------------------------|    
B|---------------------------------------------------------------------------|
G|-7-7-7-7-7-7-7-71111111111111111-7-7-7-7-7-7-7-7---------------------------|
D|-7-7-7-7-7-7-7-71111111111111111-7-7-7-7-7-7-7-7-7-7-7-7-7-7-7-7-----------|
A|-5-5-5-5-5-5-5-5-9-9-9-9-9-9-9-9-5-5-5-5-5-5-5-5-7-7-7-7-7-7-7-7-----------|
E|-------------------------------------------------5-5-5-5-5-5-5-5-----------|

Guitar 2                                                                        X2
e|---------------------------------------------------------------------------|
B|--7-7-5-7--5--7--5--7--9-10\7~---7-7-5-7--5--7--5--5-----------------------|
G|---------------------------------------------------------------------------|
D|------------------------------------------------------7--9~----------------|
A|---------------------------------------------------------------------------|
E|---------------------------------------------------------------------------|


e|---------------------------------------------------------------------------|
B|---------------------------------------------------------------------------|
G|--------7-7-7--6-6-6~----7-7-7---------------------------------------------|
D|-7-7-7--7-7-7--6-6-6~----7-7-7-7-7-7-2-2-2-2-2-2-2-------------------------|
A|-7-7-7--5-5-5--4-4-4~----5-5-5-7-7-7-2-2-2-2-2-2-2-------------------------|
E|-5-5-5-------------------------5-5-5-0-0-0-0-0-0-0-------------------------|


e|---------------------------------------------------------------------------|
B|---------------------------------------------------------------------------|
G|-----------------9-9-9-9-9-9-9-9-7-7-7-7-7-7-7-7-9-9-9-9-9-9-9-9-----------|
D|-7-7-7-7-7-7-7-7-9-9-9-9-9-9-9-9-7-7-7-7-7-7-7-7-9-9-9-9-9-9-9-9-----------|  X2
A|-7-7-7-7-7-7-7-7-7-7-7-7-7-7-7-7-5-5-5-5-5-5-5-5-7-7-7-7-7-7-7-7-----------|
E|-5-5-5-5-5-5-5-5-----------------------------------------------------------|

Guitar 1
e|---------------------------------------------------------------------------|    
B|---------------------------------------------------------------------------|
G|-7-7-7-7-7-7-7-71111111111111111-7-7-7-7-7-7-7-7---------------------------|
D|-7-7-7-7-7-7-7-71111111111111111-7-7-7-7-7-7-7-7-7-7-7-7-7-7-7-7-----------|
A|-5-5-5-5-5-5-5-5-9-9-9-9-9-9-9-9-5-5-5-5-5-5-5-5-7-7-7-7-7-7-7-7-----------|
E|-------------------------------------------------5-5-5-5-5-5-5-5-----------|

Guitar 2                                                                        X2
e|---------------------------------------------------------------------------|
B|--7-7-5-7--5--7--5--7--9-10\7~---7-7-5-7--5--7--5--5-----------------------|
G|---------------------------------------------------------------------------|
D|------------------------------------------------------7--9~----------------|
A|---------------------------------------------------------------------------|
E|---------------------------------------------------------------------------|


e|---------------------------------------------------------------------------|
B|---------------------------------------------------------------------------|
G|--------7-7-7--6-6-6~----7-7-7---------------------------------------------|
D|-7-7-7--7-7-7--6-6-6~----7-7-7-7-7-7-2-2-2-2-2-2-2-------------------------|
A|-7-7-7--5-5-5--4-4-4~----5-5-5-7-7-7-2-2-2-2-2-2-2-------------------------|
E|-5-5-5-------------------------5-5-5-0-0-0-0-0-0-0-------------------------|


e|---------------------------------------------------------------------------|
B|---------------------------------------------------------------------------|
G|-----------------9-9-9-9-9-9-9-9-7-7-7-7-7-7-7-7-9-9-9-9-9-9-9-9-----------|
D|-7-7-7-7-7-7-7-7-9-9-9-9-9-9-9-9-7-7-7-7-7-7-7-7-9-9-9-9-9-9-9-9-----------|  X2
A|-7-7-7-7-7-7-7-7-7-7-7-7-7-7-7-7-5-5-5-5-5-5-5-5-7-7-7-7-7-7-7-7-----------|
E|-5-5-5-5-5-5-5-5-----------------------------------------------------------|

End the song with this chord
e|---------------------------------------------------------------------------|
B|---------------------------------------------------------------------------|
G|---------------------------------------------------------------------------|
D|-7--7--7-7~----------------------------------------------------------------|
A|-7--7--7-7~----------------------------------------------------------------|
E|-5--5--5-5~----------------------------------------------------------------|
            
Submit corrections

comments powered by Disqus
↑ Back to top | Vennaskond Tabs for Marianne. Lyrics for acoustic guitar and electric guitar. 1 Tablatures and chords are parodies/interpretations of the original songs. You may use it for private study, scholarship, research or language learning purposes only