» » »

Vendetta Red, Vendetta Red Cried Rape On Their Date With Destiny Tabs (ver.1)

Artists:  A B C D E F G H I J K L M N O P Q R S T U V W X Y Z # 

Vendetta Red Cried Rape On Their Date With Destiny Tabs (ver.1)

Vendetta Red Tabs
 Rating:
4.2/5 (5 votes)
Vendetta Red Cried Rape On Their Date With Destiny lessons Tabs too difficult? Try these video lessons and learn fast
1
                Tuning: Drop D (DADGBe)

(Not actual strum patterns)

Intro:
pt. I
e------------------------------------------------------------|
B------------------------------------------------------------|
G------------------------------------------------------------|
D--0-0-0-0-0-0-0-0-0-0-0-0-0-0-0-0-0-0-0-0-0-0-0-0-0-0-0-0-0-| x4
A--0-0-0-0-0-0-0-0-0-0-0-0-0-0-0-0-0-0-0-0-0-0-0-0-0-0-0-0-0-|
D--0-0-0-0-0-0-0-0-0-0-0-0-0-0-0-0-0-5-5-5-5-5-5-4-4-4-4-4-4-|

pt. II
e------------------------------------------------------------|
B------------------------------------------------------------|
G--11--12--14--11--16--14--11--7--9--11--12~----11~----------|
D--x---x---x---x---x---x---x---x--x--x---x------x------------|
A--9---10--12--9---14--12--9---5--7--9---10~----9~-----------|
D------------------------------------------------------------|

Verse:
e------------------------------------------------------------|
B------------------------------------------------------------|
G---7-7----------7-7-----------7-7------------7-7------------| x2
D------------------------------------------------------------|
A------------------------------------------------------------|
D------------------------------------------------------------|

Chorus:
e------------------------------------------------------------
B------------------------------------------------------------
G------------------------------------------------------------
D--9-9-9-9-9-9-7-7-7-7-7-7-0-0-0-0-0-0-5-5-5-5-5-5-----------
A--9-9-9-9-9-9-7-7-7-7-7-7-0-0-0-0-0-0-5-5-5-5-5-5-----------
D--9-9-9-9-9-9-7-7-7-7-7-7-0-0-0-0-0-0-5-5-5-5-5-5-----------

------------------------------------------------------------|
------------------------------------------------------------|
------------------------------------------------------------|
--9-9-9-9-9-9-7-7-7-7-7-7-0-0-0-4-4-4-2-2-2-5-5-5-----------|
--9-9-9-9-9-9-7-7-7-7-7-7-0-0-0-4-4-4-2-2-2-5-5-5-----------|
--9-9-9-9-9-9-7-7-7-7-7-7-0-0-0-4-4-4-2-2-2-5-5-5-----------|

e------------------------------------------------------------
B------------------------------------------------------------
G------------------------------------------------------------
D--9-9-9-9-9-9-7-7-7-7-7-7-0-0-0-0-0-0-5-5-5-5-5-5-----------
A--9-9-9-9-9-9-7-7-7-7-7-7-0-0-0-0-0-0-5-5-5-5-5-5-----------
D--9-9-9-9-9-9-7-7-7-7-7-7-0-0-0-0-0-0-5-5-5-5-5-5-----------

------------------------------------------------------------|
------------------------------------------------------------|
------------------------------------------------------------|
--9-9-9-9-9-9-7-7-7-7-7-7-0-0-0-4-4-4-2-2-2-5x--------------|
--9-9-9-9-9-9-7-7-7-7-7-7-0-0-0-4-4-4-2-2-2-5x--------------|
--9-9-9-9-9-9-7-7-7-7-7-7-0-0-0-4-4-4-2-2-2-5x--------------|

e------------------------------------------------------------|
B------------------------------------------------------------|
G------------------------------------------------------------|
D--xxxx-0-0-0-4-4-4-2-2-2-5x---------------------------------|
A--xxxx-0-0-0-4-4-4-2-2-2-5x---------------------------------|
D--xxxx-0-0-0-4-4-4-2-2-2-5x---------------------------------|

e------------------------------------------------------------|
B------------------------------------------------------------|
G------------------------------------------------------------|
D--0-0-0-4-4-4-2-2-2-5-5-5-----------------------------------|
A--0-0-0-4-4-4-2-2-2-5-5-5-----------------------------------|
D--0-0-0-4-4-4-2-2-2-5-5-5-----------------------------------|

e------------------------------------------------------------|
B------------------------------------------------------------|
G------------------------------------------------------------|
D--0-0-0-4-4-4-2-2-2-5x--------------------------------------|
A--0-0-0-4-4-4-2-2-2-5x--------------------------------------|
D--0-0-0-4-4-4-2-2-2-5x--------------------------------------|

Bridge:
This part is kind of hard to figure out. It's all light and
fast and ahh. >< These seem to be the right notes but I'm not 
sure about how to play them exactly.

e------------------------------------------------------------|
B------------------------------------------------------------|
G--7-9-7-6-7-6-----------------------------------------------|
D------------------------------------------------------------|
A------------------------------------------------------------|
D------------------------------------------------------------|

Chorus II:
e------------------------------------------------------------
B------------------------------------------------------------
G------------------------------------------------------------
D--9-9-9-9-9-9-7-7-7-7-7-7-0-0-0-0-0-0-5-5-5-5-5-5-----------
A--9-9-9-9-9-9-7-7-7-7-7-7-0-0-0-0-0-0-5-5-5-5-5-5-----------
D--9-9-9-9-9-9-7-7-7-7-7-7-0-0-0-0-0-0-5-5-5-5-5-5-----------

------------------------------------------------------------|
------------------------------------------------------------|
------------------------------------------------------------|
--9-9-9-9-9-9-7-7-7-7-7-7-0-0-0-4-4-4-2-2-2-5-xxxx----------|
--9-9-9-9-9-9-7-7-7-7-7-7-0-0-0-4-4-4-2-2-2-5-xxxx----------|
--9-9-9-9-9-9-7-7-7-7-7-7-0-0-0-4-4-4-2-2-2-5-xxxx----------|

e------------------------------------------------------------|
B------------------------------------------------------------|
G------------------------------------------------------------|
D--0-0-0-4-4-4-2-2-2-5x--------------------------------------|
A--0-0-0-4-4-4-2-2-2-5x--------------------------------------|
D--0-0-0-4-4-4-2-2-2-5x--------------------------------------|

e------------------------------------------------------------|
B------------------------------------------------------------|
G------------------------------------------------------------| x9
D--0-0-0-4-4-4-2-2-2-5-5-5-----------------------------------|
A--0-0-0-4-4-4-2-2-2-5-5-5-----------------------------------|
D--0-0-0-4-4-4-2-2-2-5-5-5-----------------------------------|

e------------------------------------------------------------|
B------------------------------------------------------------|
G------------------------------------------------------------|
D--0-0-0-4-4-4--2--2--2--5~~---------------------------------|
A--0-0-0-4-4-4--2--2--2--5~~---------------------------------|
D--0-0-0-4-4-4--2--2--2--5~~---------------------------------|

Order:

Intro pt. I (0:00)
Intro pt. II (0:11)
Verse (0:23)
Chorus (0:46)
Verse (1:17)
Chorus (1:40)
Intro pt. II (2:12)
Bridge (2:24)
Chorus II (2:44)

This is my first tab. I hope you like it. 
I think it is pretty much dead on.
            
Submit corrections

comments powered by Disqus
↑ Back to top | Vendetta Red Tabs for Vendetta Red Cried Rape On Their Date With Destiny. Lyrics for acoustic guitar and electric guitar. 1 Tablatures and chords are parodies/interpretations of the original songs. You may use it for private study, scholarship, research or language learning purposes only