» » »

Stay Home Tabs (ver.1)

Artists:  A B C D E F G H I J K L M N O P Q R S T U V W X Y Z # 

Stay Home Tabs (ver.1)

Vendetta Red
Rating:
0/5 (0 votes)

Hard to play? Try these video lessons and learn fast.
                THIS PROBABLY ISN'T EVEN CLOSE. THERE ARE 2 GUITARISTS IN VENDETTA RED. I'M TOO LAZY TO TAB OUT THE RYTHYM SO YOU CAN TRY TO FIGURE IT OUT.


VERSE

   P.M.
e|------------|
B|------------|
G|------------|
D|-7----10----|   4X
A|-7----10----|
E|-5-----8----|


CHORUS           replace last chord 4th time only
e|-----------|        |------|
B|-----------|        |------|
G|-----------|        |------|
D|------10---|        |------|
A|-10----8---|        |--12--|
E|--8--------|        |--10--|


BRIDGE
e|---------------------|
B|---------------------|
G|---------------------|
D|---------------------|
A|-7-77-2-22-3-33-5-55-|
E|-5-55-0-00-1-11-3-33-|
            
Hard to play? Try these video lessons and learn fast. | Correct




comments powered by Disqus
↑ Back to top | Tablatures and chords are parodies/interpretations of the original songs. You may use it for private study, scholarship, research or language learning purposes only