» » »

Seconds Away Tabs (ver.1)

Artists:  A B C D E F G H I J K L M N O P Q R S T U V W X Y Z # 

Seconds Away Tabs (ver.1)

Vendetta Red
Rating:
5/5 (1 vote)

Hard to play? Try these video lessons and learn fast.
                ---------------------------------------------------------------------------
---------------------------------------------------------------------------

Tuning: EADGBe

INTRO - GUITAR 1
e|------------------------------/10---10-------------------------------------|
B|-----10-10-----10-10-8---8-10-----8----10\-----10-10-----10-10-8---8-8---8-|
G|-7-7-------7-7---------7-------------------7-7-------7-7---------7-----7---|
D|---------------------------------------------------------------------------|
A|---------------------------------------------------------------------------|
E|---------------------------------------------------------------------------|

INTRO - GUITAR 2
e|--------------------------------------------|
B|--------------------------------------------|
G|----------------------------------5-5-5-5-5-|
D|-5-5-5-5-5--5-5-5-5-5--2-2-2-2-2--5-5-5-5-5-|
A|-5-5-5-5-5--5-5-5-5-5--2-2-2-2-2--3-3-3-3-3-|
E|-3-3-3-3-3--3-3-3-3-3--0-0-0-0-0------------|


PRE-CHORUS (alternate slow downstroke/upstroke for chords)
e|-0~-0~-------0~-0~--------0~-0~-----------------------------------|
B|-1~-1~-------1~-1~--------1~-1~-----------------------------------|
G|-2~-2~-------2~-2~--------2~-2~--------5-5-5-5--5-5-5-5---7-------|
D|-2~-2~-------2~-2~--------2~-2~--------5-5-5-5--5-5-5-5---7-(x12)-|
A|-0~-0~-------0~-0~--------0~-0~--------3-3-3-3--3-3-3-3---5-------|
E|-0~-0~-0-2-3-0~-0~-0-2-3--0~-0~-0-2-3-----------------------------|

CHORUS - GUITAR 1
e|-------------------------------------------------------|
B|-------------------------------------------------------|
G|------------5-5-5-5-5-------------5-5-5-5-5------------|
D|-5-5-5-5-5--5-5-5-5-5--5-5-5-5-5--5-5-5-5-5--5-5-5-5-5-|
A|-5-5-5-5-5--3-3-3-3-3--5-5-5-5-5--3-3-3-3-3--5-5-5-5-5-|
E|-3-3-3-3-3-------------3-3-3-3-3-------------3-3-3-3-3-|

e|---------------------------------------------|
B|---------------------------------------------|
G|-12--12-12-12-11--11--11-11-11-9--9--9-9-9-7-|
D|--x---x--x--x--x---x---x--x--x-x--x--x-x-x-x-|
A|-10--10-10-10--9---9---9--9--9-7--7--7-7-7-5-|
E|---------------------------------------------|

e|-------------------------------------------------------|
B|-------------------------------------------------------|
G|------------5-5-5-5-5-------------5-5-5-5-5------------|
D|-5-5-5-5-5--5-5-5-5-5--5-5-5-5-5--5-5-5-5-5--5-5-5-5-5-|
A|-5-5-5-5-5--3-3-3-3-3--5-5-5-5-5--3-3-3-3-3--5-5-5-5-5-|
E|-3-3-3-3-3-------------3-3-3-3-3-------------3-3-3-3-3-|

e|-----------------------------------------------------|
B|-----------------------------------------------------|
G|-12--12-12-12-11--11--11-11-11-9--9--9-9-9---7-------|
D|--x---x--x--x--x---x---x--x--x-x--x--x-x-x---x-(x12)-|
A|-10--10-10-10--9---9---9--9--9-7--7--7-7-7---5-------|
E|-----------------------------------------------------|

CHORUS - GUITAR 2
e|-------------------------------------------------------|
B|-------------------------------------------------------|
G|------------5-5-5-5-5-------------5-5-5-5-5------------|
D|-5-5-5-5-5--5-5-5-5-5--5-5-5-5-5--5-5-5-5-5--5-5-5-5-5-|
A|-5-5-5-5-5--3-3-3-3-3--5-5-5-5-5--3-3-3-3-3--5-5-5-5-5-|
E|-3-3-3-3-3-------------3-3-3-3-3-------------3-3-3-3-3-|

e|------------------------------|
B|------------------------------|
G|------------5-5-5-5-5-5--4-2-|
D|-2-2-2-2-2--5-5-5-5-5-5--4-2-|
A|-2-2-2-2-2--3-3-3-3-3-3--2-0-|
E|-0-0-0-0-0-------------------|

e|-------------------------------------------------------|
B|-------------------------------------------------------|
G|------------5-5-5-5-5-------------5-5-5-5-5------------|
D|-5-5-5-5-5--5-5-5-5-5--5-5-5-5-5--5-5-5-5-5--5-5-5-5-5-|
A|-5-5-5-5-5--3-3-3-3-3--5-5-5-5-5--3-3-3-3-3--5-5-5-5-5-|
E|-3-3-3-3-3-------------3-3-3-3-3-------------3-3-3-3-3-|

e|-------------------------------------------------------|
B|-------------------------------------------------------|
G|------------5-5-5-5-5-5--5-5-5-5--7-7-7-7-7-7--4-2-----|
D|-2-2-2-2-2--5-5-5-5-5-5--5-5-5-5--7-7-7-7-7-7--4-2--2~-|
A|-2-2-2-2-2--3-3-3-3-3-3--3-3-3-3--5-5-5-5-5-5--2-0--2~-|
E|-0-0-0-0-0------------------------------------------0~-|

REPEAT VERSE

REPEAT CHORUS 

INTERLUDE - GUITAR 1
e|--------------------------------10---10---10-8---8-10---10-|
B|---10---10---10-8---8-7---7--/8----8----8------8------8----|
G|-7----7----7------7-----7----------------------------------|
D|-----------------------------------------------------------|
A|-----------------------------------------------------------|
E|-----------------------------------------------------------|

INTERLUDE - GUITAR 2 (slow downstroke first chord)
e|-0---------------------------------------------------------|
B|-0---------------------------------------------------------|
G|-0--------------7-7-7-7-7--5-5-5-5-5-5--5-5-5-5--5-5-5-5-5-|
D|-5--5-5-5-5-5---7-7-7-7-7--5-5-5-5-5-5--5-5-5-5--5-5-5-5-5-|
A|-5--5-5-5-5-5---5-5-5-5-5--3-3-3-3-3-3--3-3-3-3--3-3-3-3-3-|
E|-3--3-3-3-3-3----------------------------------------------|

BRIDGE - GUITAR 1
e|------------------------------------------------------|
B|------------------------------------------------------|
G|------------12-12-12-12-12-------------14-14-12-12-12-|
D|-5-5-5-5-5---x--x--x--x--x--5-5-5-5-5---x--x--x--x--x-|
A|-5-5-5-5-5--10-10-10-10-10--5-5-5-5-5--12-12-10-10-10-|
E|-3-3-3-3-3------------------3-3-3-3-3-----------------|

e|-----------------------------------|
B|-----------------------------------|
G|-16-16-16-16-16-16-16-16-16-16-17--|
D|--x--x--x--x--x--x--x--x--x--x--x--|
A|-14-14-14-14-14-14-14-14-14-14-15--|
E|-----------------------------------|

BRIDGE - GUITAR 2 (repeat chorus riff)

FINAL CHORUS
e|--------------------------------------------|
B|--------------------------------------------|
G|----------------------------------5---------|
D|-5--5-5-5-5-5--5-5-5-5-2--x-x-x-x-5-x-x-x-x-|
A|-5--5-5-5-5-5--5-5-5-5-2--x-x-x-x-3-x-x-x-x-| (repeat 4x)
E|-3--3-3-3-3-3--3-3-3-3-0--x-x-x-x---x-x-x-x-|

END ON
E|----|
B|----|
G|-5~-|
D|-5~-|
A|-3~-|
E|----|

| .  palm mute
| “  tremolo pick
| *  pinch harmonic
| ~  let note ring
| /  slide up
| \  slide down
| h  hammer-on
| p  pull-off
| v  vibrato
| +  natural harmonic
| x  mute note

=============================================================
            
Hard to play? Try these video lessons and learn fast. | Correct




comments powered by Disqus
↑ Back to top | Tablatures and chords are parodies/interpretations of the original songs. You may use it for private study, scholarship, research or language learning purposes only