» » »

Vendetta Red, Run Tabs (ver.1)

Artists:  A B C D E F G H I J K L M N O P Q R S T U V W X Y Z # 

Run Tabs (ver.1)

Vendetta Red Tabs
Rating:
0/5 (0 votes)
Run lessons Tabs too difficult? Try these video lessons and learn fast
                -----------------------------------------------------------------------------
-----------------------------------------------------------------------------

Tuning: normal, with distortion

Intro-
e|---------------------------------------------------------------------------|
B|---------------------------------------------------------------------------|
G|66666666------4444-77777777------3333--------------------------------------|
D|66666666-4444-4444-77777777-4444-3333-99999999-7777-4444-66666666------x2--|
A|44444444-4444-2222-55555555-4444-1111-99999999-7777-4444-66666666----------|
E|---------2222---------------2222------77777777-5555-2222-44444444----------|

play this after 2nd time thru intro-
e|---------------------------------------------------------------------------|
B|---------------------------------------------------------------------------|
G|-4----2--------------------------------------------------------------------|
D|-4----2--4--6--------------------------------------------------------------|
A|-2----0--4--6--------------------------------------------------------------|
E|---------2--4--------------------------------------------------------------|

Chorus-("You fall asleep forever...")
e|----------------------------------------------------------------------------|
B|----------------------------------------------------------------------------|
G|---------33333333/77777777\55555555------1010101010101010\33333333----------|
D|33333333-33333333/77777777\55555555--x2--1010101010101010\33333333/12121212-|
A|33333333-11111111/55555555\33333333-------8-8-8-8-8-8-8-8\11111111/12121212-|
E|11111111-----------------------------------------------------------10101010-|

e|---------------------------------------------------------------------------|
B|---------------------------------------------------------------------------|
G|---------------------------------------------------------------------------|
D|12121212\1010101010101010--------------------------------------------------|
A|12121212\1010101010101010--x1----------------------------------------------|
E|10101010\-8-8-8-8-8-8-8-8--------------------------------------------------|

End! Sorry the end is a bit chopped off. I couldn't figure out the rest of it beyond there. Have fun :)


| /  slide up
| \  slide down
| h  hammer-on
| p  pull-off
| ~  vibrato
| +  harmonic
| x  Mute note
=============================================================================
            
Submit corrections

comments powered by Disqus
↑ Back to top | Vendetta Red Tabs for Run. Lyrics for acoustic guitar and electric guitar. Tablatures and chords are parodies/interpretations of the original songs. You may use it for private study, scholarship, research or language learning purposes only