>
 >
P.S. Love The Black

P.S. Love The Black Guitar Tabs

Vendetta Red - P.S. Love The Black chords, tabs, tablatures, lyrics

Guitar lessons | Add/correct | Request | Top 50 tabs Artists:  A B C D E F G H I J K L M N O P Q R S T U V W X Y Z 0-9

P.S. Love The Black Guitar Tabs – Vendetta Red

CD, Sheet music, Poster

Do you like P.S. Love The Black? Share with your friends now
Bass TabsTabs
Vendetta Red
P.S. Love the Black

steve deren
Feb - 9 - 2004


intro - clean with lots of reverb

e----------------------------------------------------------------
b----------------------------------------------------------------
g--8---8----9p8---8--11p8---9p8---8------------------------------
d----9---9-------9---------9-----9---9-6---6---7p6---6--9---9----
a----------------------------------------7---7-----7-----10---10-
E----------------------------------------------------------------

e----------------------------------------------------------------
b------------------------------------------------9---9---10p9----
g-------------8---8---9p8---8--11p8---9p8---8------9---9---------
d-11----11------9---9-----9---------9-----9---9------------------
a----12----12----------------------------------------------------
E----------------------------------------------------------------

e-------------------------
b---9---------------------
g-9-----------11----11----  repeat 3 times
d------10-10-----10----10-  guitar 2 comes in on the 3rd time
a-------------------------
E-------------------------


II   00:42

"make a wish..."
e-------------------------------------------------------
b-0~--------------------(guitar 2)----------------------
g-8~----------------------------------------------------
d-9~-------------6---6---6---6---9----9----11----11-----
a-9~---------------7---7---7---7---10---10----12----12--
E-------------------------------------------------------

e-------------------------------------------------------
b-0~---0-0------9---9---9---9---9---9-------------------
g-8~---8-8--------9---9---9---9---9---9-----------------
d-9~---9-9----------------------------------------------
a-9~---9-9----------------------------------------------
E-------------------------------------------------------

e-------------------------------------------------------
b-0~----------------------------------------------------
g-8~----------------------------------------------------
d-9~-------------6---6---6---6---9----9----11----11-----
a-9~---------------7---7---7---7---10---10----12----12--
E-------------------------------------------------------

e-------------------------------------------------------
b-0~---0-0------9---9---9---9---9---9-------------------
g-8~---8-8--------9---9---9---9---9---9-----------------
d-9~---9-9----------------------------------------------
a-9~---9-9----------------------------------------------
E-------------------------------------------------------


III     01:10 - with distortion  

both guitars
e-----------------------------------------------
b-----------------------------------------------
g--4--4/5-4-------------------------------------
d--4--4/5-4--------22222222-5555-8888-----------
a--2--2/3-2--------22222222-5555-8888-----------
E--------------7\--00000000-3333-6666-----------

guitar 1
e----------------------------------------------|
b----------------------------------------------|
g--4--4/5-4------------------------------------|
d--4--4/5-4--------22222222-5555-8888----------|
a--2--2/3-2--------22222222-5555-8888----------|
E--------------7\--00000000-3333-6666----------|
|                                              |
| guitar 2                                     |
e----------------------------------------------|
b------------------9---9---9---9---9---9-------|
g--------------------9---9---9---9---9---9-----|
d----------------------------------------------|
a----------------------------------------------|
E----------------------------------------------|




**repeat part II**



IV   01:53 chorus


e-------------------------------------------------------|
b-------------------------------------------------------|
g----------- 4444--------------------------4------------|
d--2222-6666-4444-7777--------2--22--6666--4-let ring---|
a--2222-6666-2222-7777--(x3)--2--22--6666--2------------|
E--0000-4444------5555--------0--00--4444---------------|
|                                                       |  listen for rythem on both parts
| guitar 2                                              |
e-------------------------------------------------------|
b-------------------------------------------------------|
g--13--16---4444---8--11-----------8--11---4------------|
d--x---x----4444---x--x---(x3)-----x--x----4--let ring--|
a--11--14---2222---6--9------------6--9----2------------|
E-------------------------------------------------------|


V   02:17

play intro through once, then:

e---------------------------------------------------------------
b---------------------------------------------------------------
g--8---8----9p8---8--11p8---9p8---8-----------------------------
d----9---9-------9---------9-----9---9-6---6---7p6---6--9----9--
a----------------------------------------7---7-----7-----10---10
E---------------------------------------------------------------

e----------------------------------------------------------------
b------------------------------------------------9---9---999999--
g-------------8---8---9p8---8--11p8---9p8---8------9---9---------
d-11----11------9---9-----9---------9-----9---9------------------
a----12----12----------------------------------------------------
E----------------------------------------------------------------

e-------------------------------
b-------------------------------
g----------------11-11-11-11-11- 
d-10-10 10 10 10----------------  
a-------------------------------
E-------------------------------



**repeat chorus**



VI  03:09 solo

all guitar 1
e-------------------------------------------------------|
b-------------------------------------------------------|
g---4--5\4----------------------------------------------|
d---4--5\4--2--4-4/5-4~~--4/5-5~~-7~~-9~~-9b10-10r9-----|
a---2--3\2----------------------------------------------|
E-------------------------------------------------------|

e-------------------------------------------------------|
b-------------------------------------------------------|
g------------------------------99999999-8888888-999999--|
d---------------------6--7--9---------------------------|
a-------------6--7--9-----------------------------------|
E-0--/2b~~~---------------------------------------------|

e-------------------------------------------------------|
b--------------------------(keep bending)---------------|
g-11-11-11-11-11-11-12-12-12b12b12b12b12b12b12b12-12br--|
d-------------------------------------------------------|
a-------------------------------------------------------|
E-------------------------------------------------------|

e-------------------------------------------------------|
b------------------19-17-16-16h17-17-17-17-17--19-19-19-|
g--16-16b-16r~~~~---------------------------------------|
d-------------------------------------------------------|
a-------------------------------------------------------|
E-------------------------------------------------------|

e-----------------------------------|
b--19-19-22-22-22/24-24~~~~~~~------|
g-----------------------------------|
d-----------------------------------|
a-----------------------------------|
E-----------------------------------|


guitar 2 played under solo

e-----------------------------------|
b-----------------------------------|
g--4-4/5-4--------------------------|
d--4-4/5-4----2222-5555-6666--------|
a--2-2/3-2----2222-5555-6666--------|
E----------7\-0000-3333-4444--------|






this next part is on bass, i tabbed it for guitar--still sounds good

VII the chant 03:44
e---------------------------------------------------|
b---------------------------------------------------|
g---------------------------------------------------|
d---------------------------------------------------|
a---------------------------------------------------|
E-7777-7777-7777-000000000-333333-6666666-7777-7777-|

e-----------------------------------|
b-----------------------------------|
g-----------------------------------|
d-----------------------------------| (x3)
a-----------7777777-333333-6666666--|
E-7777-7777-------------------------|


VIII  04:26

"..skin crawlllll........."

both guitars

listen to octave stuff for rhythem
e---------------------------------------------------|
b---------------------------------------------------|
g-----------------------13-13-13-9-9-9-12-12-12-----|
d---9999-9999-9999-9999--x--x--x-x-x-x--x--x--x-----|
a---9999-9999-9999-9999-11-11-11-7-7-7-10-10-10-----|
E---7777-7777-7777-7777-----------------------------|
					          
e---------------------------------------------------|
b---------------------------------------------------|
g-----------------------13-13-13-16-16-16-19-19-19--|
d---9999-9999-9999-9999--x--x--x--x--x--x--x--x--x--|
a---9999-9999-9999-9999-11-11-11-14-14-14-17-17-17--|
E---7777-7777-7777-7777-----------------------------|



build up and end

guitar 1 05:13

e---------------------------|
b---------------------------|
g---------------------------|
d---9999-9999-9999-9999-----|
a---9999-9999-9999-9999-----|
E---7777-7777-7777-7777-----|
|                           |
|guitar 2                   |
e---------------------------|
b---------------------------|
g---9---12---14----16---9\--|
d---x----x----x-----x---9\--| listen for number of times each is played
a---7---10---12----14---7\--|
E---------------------------|





Comments


Popular Vendetta Red tabs & chords
Caught You Like A Cold Tabs
Opiate Summer Tabs
Opiate Summer 1 Tabs
Run Tabs
Shatterday Tabs
Shatterday 1 Tabs
Silhouette Serenade 1 Tabs
The White Nightmare Tabs
Vendetta Red Cried Rape On Their Date With Destiny Tabs
Silhouette Serenade Ukulele


Song lyrics



↑ Back to top | Tablatures and chords are parodies/interpretations of the original songs. You may use it for private study, scholarship, research or language learning purposes only
© 2014 AZChords.com Contact us | Privacy policy | DMCA | Add/correct tabs | Request tabs | Top 50 tabs