» » »

Vendetta Red, Por Vida Tabs (ver.1)

Artists:  A B C D E F G H I J K L M N O P Q R S T U V W X Y Z # 

Por Vida Tabs (ver.1)

Vendetta Red Tabs
Rating:
5/5 (2 votes)
Por Vida lessons Tabs too difficult? Try these video lessons and learn fast
                
-|----------------------------------|----------------------------------|------|
-|----------------------------------|----------------------------------|------|
-|----------------------------------|----------------------------------|------|
-|----xx-xx----xx-xx----xx-xx-6-6-6-|----xx-xx----xx-xx----xx-xx-6-6-6-|------|
-|-2--xx-xx-2--xx-xx-2--xx-xx-6-6-6-|-2--xx-xx-2--xx-xx-2--xx-xx-6-6-6-|------|
-|-0--xx-xx-0--xx-xx-0--xx-xx-4-4-4-|-0--xx-xx-0--xx-xx-0--xx-xx-4-4-4-|------|
                                                                      guitar1

-|----------------------------------|----------------------------------|------|
-|----------------------------------|----------------------------------|------|
-|----------------------------------|----------------------------------|------|
-|----------------------------6-6-6-|----------------------------6-6-6-|------|
-|----------------------------6-6-6-|-2--------------------------6-6-6-|------|
-|----------------------------4-4-4-|-0--------------------------4-4-4-|------|
                                                                      guitar2

-|----------------------------------|----------------------------------|------|
-|----------------------------------|----------------------------------|------|
-|----------------------------------|----------------------------------|------|
-|----xx-xx----xx-xx----xx-xx-6-6-6-|----xx-xx----xx-xx----xx-xx-6-6-6-|------|
-|-2--xx-xx-2--xx-xx-2--xx-xx-6-6-6-|-2--xx-xx-2--xx-xx-2--xx-xx-6-6-6-|------|
-|-0--xx-xx-0--xx-xx-0--xx-xx-4-4-4-|-0--xx-xx-0--xx-xx-0--xx-xx-4-4-4-|------|
                                                                      guitar1

-|----------------------------------|----------------------------------|------|
-|----------------------------------|----------------------------------|------|
-|----------------------------------|----------------------------------|------|
-|----------------------------6-6-6-|----------------------------------|------|
-|-2--------------------------6-6-6-|-2--------------------------------|------|
-|-0--------------------------4-4-4-|-0--------------------------------|------|
                                             (--slide pick down(--    guitar2

-|----------------------------------|-----------------------------------------|
-|----------------------------------|-----------------------------------------|
-|----------------------------------|-----------------------------------------|
-|-2--22-22-7--77-77-2--22-22-6-6-6-|-----------------------------------------|
-|-2--22-22-7--77-77-2--22-22-6-6-6-|------------x4---------------------------|
-|-0--00-00-5--55-55-0--00-00-4-4-4-|-----------------------------------------|
                    (chorus)                                     both guitars

-|----------------------------------------------------------------------------|
-|----------------------------------------------------------------------------|
-|----------------------------------------------------------------------------|
-|-2--------------------------------------------------------------------------|
-|-2--------------------------------------------------------------------------|
-|-0--------------------------------------------------------------------------|
      *ring out*    (verse)

-|----------------------------------|----------------------------------|------|
-|----------------------------------|----------------------------------|------|
-|----------------------------------|----------------------------------|------|
-|-9--xx-xx-9--xx-xx-9--xx-xx-7-7-8-|-9--xx-xx-9--xx-xx-9--xx-xx-7-7-8-|------|
-|-9--xx-xx-7--xx-xx-9--xx-xx-7-7-8-|-9--xx-xx-9--xx-xx-9--xx-xx-7-7-8-|------|
-|-7--xx-xx-7--xx-xx-7--xx-xx-5-5-6-|-7--xx-xx-7--xx-xx-7--xx-xx-5-5-6-|------|
              (bridge)                                          both guitars

-|----------------------------------|----------------------------------|------|
-|----------------------------------|----------------------------------|------|
-|----------------------------------|----------------------------------|------|
-|-9--xx-xx-9--xx-xx-9--xx-xx-7-7-8-|-9--xx-xx-9--99-99-9--99-99-7-7-6-|------|
-|-9--xx-xx-9--xx-xx-9--xx-xx-7-7-8-|-9--xx-xx-9--99-99-9--99-99-7-7-6-|------|
-|-7--xx-xx-7--xx-xx-7--xx-xx-5-5-6-|-7--xx-xx-7--77-77-7--77-77-5-5-4-|------|
                                                                both guitars

-|----------------------------------------------------------------------------|
-|----------------------------------------------------------------------------|
-|----------------------------------------------------------------------------|
-|-2--------------------------------------------------------------------------|
-|-2--------------------------------------------------------------------------|
-|-0--------------------------------------------------------------------------|
     *ring out*      (end)
            

comments powered by Disqus
↑ Back to top | Vendetta Red Tabs for Por Vida. Lyrics for acoustic guitar and electric guitar. Tablatures and chords are parodies/interpretations of the original songs. You may use it for private study, scholarship, research or language learning purposes only