» » »

Opiate Summer Tabs (ver.2)

Artists:  A B C D E F G H I J K L M N O P Q R S T U V W X Y Z # 

Opiate Summer Tabs (ver.2)

Vendetta Red
Rating:
0/5 (0 votes)

Hard to play? Try these video lessons and learn fast.
                
Guitar 1 (left channel) -

0:00 - Intro:         0:04 - Intro 2
E|-3----------------||----------------------|
B|-5----------------||----------------------|
G|-4----------------||----------------------|
D|-2----------------||----------------------|
A|-2----------------||-2/10--9-7---------7/-|
D|-2----------------||----------------------|
                     
0:11 - Intro 3 (x2): 
E|------------------|
B|------------------|
G|------------------|
D|-2x-2x--2x-2x-2x--|
A|-2x-2x--2x-2x-2x--|
D|-2x-2x--2x-2x-2x--|
Palm mute . . . . . .

0:17 - Verse (tacit)
0:40 - Pick Scr*pe

0:41 - Prechorus:
E|------------------------------------|
B|------------------------------------|
G|------------------------------------|
D|------------------------------------|
A|-2-2-02-0-2-02-2-3-3-3333-5-55/7-7--|
D|------------------------------------|

E|---------------------------|
B|---------------------------|
G|---------------------------|
D|---------------------------|
A|---2-02-0-2-02-2-----------|
D|-----------------5----7----|

0:52 - Chorus (x4):
E|-----------------------|
B|-----------------------|
G|-7---------------------|
D|-7---7-7---4-4---5-5---|
A|-5---7-7---4-4---5-5---|
D|-----7-7---4-4---5-5---|

1:04 - Riff 1 (x4):
E|----------------|
B|----------------|
G|-----5-5-5-5-5--|
D|-2---5-5-5-5-5--|
A|-2---3-3-3-3-3--|
D|-2--------------|

1:10 - Intro 2
1:15 - Intro 3 (x2)
1:21 - Verse 2 (tacit)
1:44 - Prechorus
1:56 - Chorus (x4)

2:07 - Riff 2 (x4):
E|-----------------------------|
B|-----------------------------|
G|-----5-5-4-4-5-7---5-5-4-4-5-|
D|-2---5-5-4-4-5-7---5-5-4-4-5-|
A|-2---3-3-2-2-3-5---3-3-2-2-3-|
D|-2---------------------------|

2:18 - Bridge 1:
E|-------------------------|
B|-------------------------|
G|-------------------------|
D|-------------------------|
A|-7>---10>-9>-7>--5>-7>---|
D|-------------------------|

E|-------------------------|
B|-------------------------|
G|-------------------------|
D|-------------------------|
A|-7>---10>-12>-14>--------|
D|-------------------5--7--|

E|-------------------------|
B|-------------------------|
G|-7---------------------7-|
D|-7---------------------7-|
A|-5--/7--/9----()-----b-5-| (release to harmonic, then bend)
D|-------------------------|

2:37 - Bridge 2 (tacit)
2:53 - Bridge 3 (tacit)
3:04 - Chorus (x8)

3:28 - Fin:
E|-2-|
B|-3-|
G|-2-|
D|-0-|
A|-0-|
D|-0-|
            
Hard to play? Try these video lessons and learn fast. | Correct




comments powered by Disqus
↑ Back to top | Tablatures and chords are parodies/interpretations of the original songs. You may use it for private study, scholarship, research or language learning purposes only