» » »

Vendetta Red, Lipstick Tourniquets Tabs (ver.1)

Artists:  A B C D E F G H I J K L M N O P Q R S T U V W X Y Z # 

Lipstick Tourniquets Tabs (ver.1)

Vendetta Red Tabs
Rating:
0/5 (0 votes)
Lipstick Tourniquets lessons Tabs too difficult? Try these video lessons and learn fast
                Tuning: Standard Tuning

this is such a great song but i know that there are ALOT of errors on this tab so i would really 
appreciate it if you would make some corrections. 

IntRO

E--8-8-8-8-8--1111111111-8-8-8-8-8--1414141414------------------------
B--1010101010-1313131313-1010101010-1616161616------------------------
G--1010101010-1313131313-1010101010-1616161616-888--------------------
D--1010101010-1313131313-1010101010-1616161616-888-777----------------
A--8-8-8-8-8--1313131313-1010101010-1616161616-888-777----------------
E----------------------------------------------666-555----------------

Verse;(in dier need of corrections)

E--8--8-8--6-66-8--8-8--7-77-8--8-8--3-33-----------------------------
B--10-1010-8-88-10-1010-9-99-10-1010-5-55-----------------------------
G--10-1010-8-88-10-1010-9-99-10-1010-5-55-2222222-888-777-------------
D--10-1010-8-88-10-1010-9-99-10-1010-5-55-2222222-888-777-------------
A--8--8-8--6-66-8--8-8--7-77-8--8-8--3-33-0000000-666-555-------------
E---------------------------------------------------------------------

CHORUS:(this part sounds pretty good but feel free to correct it)

E--8-8-8-8-8------------11-11-11-11-11--------------------------------
B--1010101010-----------13-13-13-13-13--------------------------------
G--1010101010-----------13-13-13-13-13--------------------------------
D--1010101010-0-666-999-13-13-13-13-13-888-777------------------------
A--8-8-8-8-8--0-666-999-11-11-11-11-11-888-777------------------------
E-------------0-444-777----------------666-555------------------------

Verse 2: (another thing thats in dier need of corrections)

E--8--8-8--2-22-8--8-8-------8--8-8--7-77-8--8-8----------------------
B--10-1010-4-44-10-1010------10-1010-9-99-10-1010---------------------
G--10-1010-4-44-10-1010------10-1010-9-99-10-1010---------------------
D--10-1010-4-44-10-1010-2-22-10-1010-9-99-10-1010-22222-888-777-------
A--8--8-8--2-22-8--8-8--2-22-8--8-8--7-77-8--8-8--22222-888-777-------
E-----------------------0-00----------------------00000-666-555-------

Solo: this is just about all i can figure out so good luck!

E---------------------------------------------------------------------
B--------------------------------------------------10-10-10-10-10-10--
G-10-10-10-10-10\4-4/7-11-11-11-11-11-10-10-10-999--------------------
D---------------------------------------------------------------------
A---------------------------------------------------------------------
E---------------------------------------------------------------------

Bridge: this is pretty acurate if you ask me.

E---------------------------------------------------------------------
B---------------------------------------------------------------------
G---------------------------------------------------------------------
D--3333-3333-3333-2222-2222-2222-7777-7777-7777-10-10-10-10-9999------
A--3333-3333-3333-2222-2222-2222-7777-7777-7777-10-10-10-10-9999------
E--1111-1111-1111-0000-0000-0000-5555-5555-5555-8--8--8--8--7777------

i wont even post the interlude cuz i know its wrong, however i will try and figure it out and when i do
you bet ill post it!! 
as for the song structure it goes:
Intro
chorus
verse1
chorus 
verse2
and chorus
solo 
bridge and the interlude which unfortunately isnt tabbed out by my lazy brain.


have fun, vendetta red is an unbelievable band that everyone should listen to!
                                                      -EricMelvinsGirl-
            
Submit corrections

comments powered by Disqus
↑ Back to top | Vendetta Red Tabs for Lipstick Tourniquets. Lyrics for acoustic guitar and electric guitar. Tablatures and chords are parodies/interpretations of the original songs. You may use it for private study, scholarship, research or language learning purposes only