» » »

Vendetta Red, Dark Heart Silhouette Tabs (ver.1)

Artists:  A B C D E F G H I J K L M N O P Q R S T U V W X Y Z # 

Dark Heart Silhouette Tabs (ver.1)

Vendetta Red Tabs
Rating:
5/5 (2 votes)
Dark Heart Silhouette lessons Tabs too difficult? Try these video lessons and learn fast
                Tuning: Drop D (DADGBE)

I'm not too sure about the pre-chorus.

Guitar 1(Lead)
----------------

Intro (0:04)
e|-2-------2-------0-------0-----------------------------------------|
B|---3---3---3---3---3---3---3---3-----------------------------------|
G|-----2-------2-------0-------0-------------------------------------|
D|-------------------------------------------------------------------|
A|-------------------------------------------------------------------|
D|-------------------------------------------------------------------|


Intro contd. (0:13), (1:57)
e|-----------------------------------------------------------------------|
B|-----------------------------------------------------------------------|
G|-11-------7--------11-------9--------11-------7--------11---12----9----|
D|-x--------x--------x--------x--------x--------x--------x----x-----x----|
A|-9--------5--------9--------7--------9--------5--------9----10----7----|
D|-----------------------------------------------------------------------|
strum


Verse (0:31)
e|-2-------2-------0-------0-----------------------------------------|
B|---3---3---3---3---3---3---3---3-----------------------------------|
G|-----2-------2-------0-------0-------------------------------------|
D|-------------------------------------------------------------------|
A|-------------------------------------------------------------------|
D|-------------------------------------------------------------------|


Pre-Chorus (0:48), (
e|-------3-2-0---0---2-3-2-0---0--------------3-2-0---0--------------|
B|-----3-------3-------------3----3s5-------3-------3----------------|
G|---0------------------------------------4--------------------------|
D|-0------------------------------------5----------------------------|
A|-------------------------------------------------------------------|
D|-------------------------------------------------------------------|


Chorus (1:03), (2:11)
e|-----------------------------------------------------------------------|
B|-----------------------------------------------------------------------|
G|-11-------7--------11-------9--------11-------7--------11---12----9----|
D|-x--------x--------x--------x--------x--------x--------x----x-----x----|
A|-9--------5--------9--------7--------9--------5--------9----10----7----|
D|-----------------------------------------------------------------------|
strum


Verse2 (1:21)
e|-2-------2-------0-------0-----------------------------------------|
B|---3---3---3---3---3---3---3---3-----------------------------------|
G|-----2-------2-------0-------0-------------------------------------|
D|-------------------------------------------------------------------|
A|-------------------------------------------------------------------|
D|-------------------------------------------------------------------|


Verse2 contd. (1:39)
e|-------------------------------------------------------------------|
B|-------------------------------------------------------------------|
G|-------------------------------------------------------------------|
D|-0-0-0-0-0-0-0-0-5-5-5-5-5-5-5-5-----------------------------------|
A|-0-0-0-0-0-0-0-0-5-5-5-5-5-5-5-5-----------------------------------|
D|-0-0-0-0-0-0-0-0-5-5-5-5-5-5-5-5-----------------------------------|
PM . .     . .     . .     . .


Verse2 fill (1:48)
e|-------------------------------------------------------------------|
B|-------------------------------------------------------------------|
G|-------------------------------------------------------------------|
D|-----------4-------------------------------------------------------|
A|-s9-9-9-9---7-5----s9-9-9-9---9-10-10s12---------------------------|
D|-------------------------------------------------------------------|


Solo (2:28)
e|-7-----7-----------------------------------------------------------|
B|-10b12-10-8s7-7b8r7-5--------5-------------------------------------|
G|----------------------7--6-7---7-6-7-7s9-7-9-9s11~-----------------|
D|-------------------------------------------------------------------|
A|-------------------------------------------------------------------|
D|-------------------------------------------------------------------|


Solo contd:
e|-7-----7------------------------------------------------------------|
B|-10b12-10-8s7-7b8r7-5-------17----------17----------17s21------s17~-|
G|----------------------18-19----19-18-19----19p18h19-----------------|
D|--------------------------------------------------------------------|
A|--------------------------------------------------------------------|
D|--------------------------------------------------------------------|


Guitar 2(Ryhthm)
----------------

Intro (0:13)
e|-------------------------------------------------------------------|
B|-------------------------------------------------------------------|
G|-------------------------------------------------------------------|
D|-0--------5--------0--------7--------0--------5--------9--------7--|
A|-0--------5--------0--------7--------0--------5--------9--------7--|
D|-0--------5--------0--------7--------0--------5--------9--------7--|
strum


Pre-Chorus (0:48)
e|-------------------------------------------------------------------|
B|-------------------------------------------------------------------|
G|-------------------------------------------------------------------|
D|-5-----7-----0-----5-----5-----7-7-7-7-7-7-7-7---------------------|
A|-5-----7-----0-----5-----5-----7-7-7-7-7-7-7-7---------------------|
D|-5-----7-----0-----5-----5-----7-7-7-7-7-7-7-7---------------------|
PM                               . . . . .
let ring


Chrous (1:03), (2:11)
e|-------------------------------------------------------------------|
B|-------------------------------------------------------------------|
G|-------------------------------------------------------------------|
D|-0--------5--------0--------7--------0--------5--------9--------7--|
A|-0--------5--------0--------7--------0--------5--------9--------7--|
D|-0--------5--------0--------7--------0--------5--------9--------7--|
strum


Verse 2 (1:30)
e|-------------------------------------------------------------------|
B|-------------------------------------------------------------------|
G|-------------------------------------------------------------------|
D|-0-0-0-0-0-0-0-0-5-5-5-5-5-5-5-5-----------------------------------|
A|-0-0-0-0-0-0-0-0-5-5-5-5-5-5-5-5-----------------------------------|
D|-0-0-0-0-0-0-0-0-5-5-5-5-5-5-5-5-----------------------------------|
PM . . . . . . . . . . . . . . . .


Verse2 contd. (1:39)
e|-------------------------------------------------------------------|
B|-------------------------------------------------------------------|
G|-------------------------------------------------------------------|
D|-0-0-0-0-0-0-0-0-5-5-5-5-5-5-5-5-----------------------------------|
A|-0-0-0-0-0-0-0-0-5-5-5-5-5-5-5-5-----------------------------------|
D|-0-0-0-0-0-0-0-0-5-5-5-5-5-5-5-5-----------------------------------|
PM . .     . .     . .     . .

Solo (2:28)
e|-------------------------------------------------------------------|
B|-------------------------------------------------------------------|
G|-------------------------------------------------------------------|
D|-9----10----0----2-0-2-0--2-0----9----10----2----7----7------------|
A|-9----10----0----2-0-2-0--2-0----9----10----2----7----7------------|
D|-9----10----0----2-0-2-0--2-0----9----10----2----7----7------------|
strum

Bridge (2:57)
e|-------------------------------------------------------------------|
B|-------------------------------------------------------------------|
G|-------------------------------------------------------------------|
D|-0-0-0-0-0-0-0-0-0-5-5-5-5-5-5-5-5-5-------------------------------|
A|-0-0-0-0-0-0-0-0-0-5-5-5-5-5-5-5-5-5-------------------------------|
D|-0-0-0-0-0-0-0-0-0-5-5-5-5-5-5-5-5-5-------------------------------|
PM . . . . . . . . . . . . . .


Thats all enjoy
            
Submit corrections

comments powered by Disqus
↑ Back to top | Vendetta Red Tabs for Dark Heart Silhouette. Lyrics for acoustic guitar and electric guitar. Tablatures and chords are parodies/interpretations of the original songs. You may use it for private study, scholarship, research or language learning purposes only