>
 >
Caught You Like A Cold

Caught You Like A Cold Guitar Tabs

Vendetta Red - Caught You Like A Cold chords, tabs, tablatures, lyrics

Guitar lessons | Add/correct | Request | Top 50 tabs Artists:  A B C D E F G H I J K L M N O P Q R S T U V W X Y Z 0-9

Caught You Like A Cold Guitar Tabs – Vendetta Red

CD, Sheet music, Poster

Do you like Caught You Like A Cold? Share with your friends now
Tabs
VENDETTA RED
CAUGHT YOU LIKE A COLD 

INTRO  1st time Clean, 2nd time distorted
E|--------------------|--------------------|--------------------|-----------------|
B|--------------------|--------------------|--------------------|-----------------|
G|--------------------|--------------------|--------------------|-----------------|
D|--------------------|--------------------|--------------------|-----------------|
A|--------------------|--------------------|--------------------|---------4h54h5-|
D|-0-400-0-75-4h5-4h5-|-0-400-0-75-4h5-4h5-|-0-400-0-75-4h5-4h5-|-0-400-0-4h54h5-|

VERSE  Clean
E|--------------------|--------------------|
B|--------------------|--------------------|
G|--------------------|--------------------|
D|--5-------10--------|--5-------10---10---|  2X
A|--7--------9--------|--7--------9----8---|
D|--------------------|--------------------|

CHORUS - Distorted
E|--------------------|--------------------|--------------------|-----------------|
B|--------------------|--------------------|--------------------|-----------------|
G|--------------------|--------------------|--------------------|-----------------|
D|--------------------|--------------------|--------------------|---4-4----6-6----|
A|--------------------|--------------------|--------------------|---2-2----4-4----|
D|-0h4--0h4--0h4--0h4-|-0h5--0h5--0h5--0h5-|-0h4--0h4--0h4--0h4-|-----------------|

POST CHORUS 
Same as intro  Distorted 

VERSE


CHORUS


SOLO
E|--------------------|--------------------|--------------------|
B|--------------------|--------------------|--------------------|
G|--------------------|--------------------|--------------------|
D|--------------------|--------------------|--------------------|  2X
A|--------------------|--------------------|--4--------4--------|
D|-14-12-11--12-11-9--|-11-9-7---9-7-5----|--4--------4-44-5-7-|

E|-------------------|
B|-------------------|
G|-------------------|
D|-44444444-55555555-|  2X
A|-44444444-55555555-|
D|-44444444-55555555-|

E|-------------------|-------------------|
B|-------------------|-------------------|
G|-------------------|-------------------|
D|-44444444-55555555-|-77777777--55--44--|
A|-44444444-55555555-|-77777777--55--44--|
D|-44444444-55555555-|-77777777--55--44--|

			E|-----|
                       B|-----|
                       G|-----|
                       D|--0--|
                       A|--0--|
                       D|--0--|





Comments


Popular Vendetta Red tabs & chords
Shatterday 2 Bass Tabs
Accident Sex Tabs
Opiate Summer Tabs
P.S. Love The Black Tabs
Seconds Away Tabs
Silhouette Serenade Tabs
Silhouette Serenade 2 Tabs
Stay Home Tabs
The White Nightmare Tabs
Silhouette Serenade Ukulele


Song lyrics



↑ Back to top | Tablatures and chords are parodies/interpretations of the original songs. You may use it for private study, scholarship, research or language learning purposes only
© 2014 AZChords.com Contact us | Privacy policy | DMCA | Add/correct tabs | Request tabs | Top 50 tabs