» » »

Vendetta Red, Accident Sex Tabs (ver.1)

Artists:  A B C D E F G H I J K L M N O P Q R S T U V W X Y Z # 

Accident Sex Tabs (ver.1)

Vendetta Red Tabs
Rating:
0/5 (0 votes)
Accident Sex lessons Tabs too difficult? Try these video lessons and learn fast
                HERE'S MOST OF IT. THE SOLO IS INCOMPLETE AND I THINK BOTH GUITARS ARE SOLOING AFTER WHAT I TABBED OUT. THIS SHOULD GET YOU STARTED. JUST FIGURE OUT THE ORDER.


INTRO
E|-----------------------------2-2--2-2--2--1-1--1-1--1--|
B|-0-2--2-2--0-0--0-2-2-2-2-2--3-3--3-3--3--3-3--3-3--3--|
G|-2-2--2-2--2-2--2-2-2-2-2-2--2-2--2-2--2--2-2--2-2--2--|
D|-2-2--2-2--2-2--2-2-2-2-2-2----------------------------| 
A|-0-0--0-0--0-0--0-0-0-0-0-0----------------------------|
D|-------------------------------------------------------|

VERSE
E|-----------------2--------2--1--------1-|
B|-0-2--2-2-----------3-----------3-------|
G|-2-2--2-2--------------2-----------2----|
D|-2-2--2-2-------------------------------|
A|-0-0--0-0-------------------------------|
D|----------------------------------------|


CHORUS\BRDIGE
E|------------------------------------------------|
B|------------------------------------------------|
G|------------------------------------------------|
D|-x-x-x-x-2--2-2-2-2-2-2-2-2--3--3-3-3--5--5-5-5-|
A|-x-x-x-x-2--2-2-2-2-2-2-2-2--3--3-3-3--5--5-5-5-|
D|-x-x-x-x-2--2-2-2-2-2-2-2-2--3--3-3-3--5--5-5-5-|

E|------------------------------------------------|
B|------------------------------------------------|
G|------------------------------------------------|
D|-2--2-2-2-2-2-2-2-2--3--3-3-3--5--5-5-5--7------|
A|-2--2-2-2-2-2-2-2-2--3--3-3-3--5--5-5-5--7------|
D|-2--2-2-2-2-2-2-2-2--3--3-3-3--5--5-5-5--7------|


SOLO (incomplete)
E|-------------------------------------------------------------------------------------|
B|-0-2-0-2-----------------------------------------------------------------------------|
G|-2-2-2-2--------------------------------4--6--4--6----4-6-9---9-7---7-7-7-9-10--10-10|
D|-2-2-2-2-----2---3b-3b--0-----3-----3------------------------------------------------|
A|-0-0-0-0-2-4--------------------5----------------------------------------------------|
D|-------------------------------------------------------------------------------------|
            
Submit corrections

comments powered by Disqus
↑ Back to top | Vendetta Red Tabs for Accident Sex. Lyrics for acoustic guitar and electric guitar. Tablatures and chords are parodies/interpretations of the original songs. You may use it for private study, scholarship, research or language learning purposes only