>
 >
Sunday Morning 6

Sunday Morning 6 Bass Tabs

Velvet Underground - Sunday Morning 6 chords, tabs, tablatures, lyrics

Guitar lessons | Add/correct | Request | Top 50 tabs Artists:  A B C D E F G H I J K L M N O P Q R S T U V W X Y Z 0-9

Sunday Morning 6 Bass Tabs – Velvet Underground

CD, Sheet music, Poster

Do you like Sunday Morning 6? Share with your friends now
Bass TabsBass Tabs v2Bass Tabs v3Bass Tabs v4Bass Tabs v5Bass Tabs v6ChordsChords v2Chords v3Chords v4TabsUkulele
Tunning: Standard

Bass Tab


Intro x2

G:------------------------|
D:------------------------|
A:---16\9~------16\-------| 
E:------------------------|

Verse 

G:-----------------------------------------------|
D:------------11-8-------------------------------|
A:---9-9---9-------9-----------6-8-9-9-----------| 
E:-------------------7-7--7--9-------------------|

G:-----------------------------------------------|
D:-------11-8------------------------------------|
A:---9--------9-------------6-8-9-9--9-8~--------| 
E:---------------7-7--7--9-----------------------|

G:-----------------------------------------------|
D:-----------------------------------------------|
A:---8-6-6---6--6-8-9-11-11---11--9h11-9---------| 
E:---------------------------------------9-9--9--|

G:-----------------------------------------------|
D:-----------------11-8--------------------------|
A:-----6-8-9-9---9------9-----------6-8-9-9------| 
E:---9--------------------7-7--7--9--------------|

G:-----------------------------------------------|
D:-------11-8------------------------------------|
A:---9--------9-------------6-8-9-9--9-8~--------| 
E:---------------7-7--7--9-----------------------|

G:-----------------------------------------------|
D:-----------------------------------------------|
A:---8-6-6---6--6-8-9-11-11---11--9h11-9---------| 
E:---------------------------------------9-9--9--|

Enter Chorus..

G:-----------------------------------------------|
D:-----------------11-8--------------------------|
A:-----6-8-9-9---9------9-----------6-8-9-9------| 
E:---9--------------------7-7--7--9--------------|

G:-----------------------------------------------|
D:-------11-8------------------------------------|
A:---9--------9----------------------------------| 
E:---------------7-7--7--6-7-9\-4-3-4---3-4--3-4-|

G:-----------------------------------------------|
D:-----------------------------------------------|
A:------------6-7--6-7--6-7-6----------6-8-------| 
E:---3-4--4-7-----------------9--8-9-9-----------|

After Last note jump to verse then chorus again and then verse for outro till fade out..


~ = Let it Ring a bit..
h = Hammer On
\ = Slide Down

Beautifull Song. Enjoy





Comments


Popular Velvet Underground tabs & chords
I'll Be Your Mirror 1 Chords
Lisa Says 1 Chords
Rock And Roll Runaways Chords
Sweet Jane 1 Chords
Who Loves The Sun 1 Chords
Heroin 3 Tabs
I Can't Stand It Tabs
What Goes On Tabs
Cool It Down Ukulele
Perfect Day Ukulele


Song lyrics



↑ Back to top | Tablatures and chords are parodies/interpretations of the original songs. You may use it for private study, scholarship, research or language learning purposes only
© 2014 AZChords.com Contact us | Privacy policy | DMCA | Add/correct tabs | Request tabs | Top 50 tabs