» » »

Velvet Underground, Sunday Morning Tabs (ver.1)

Artists:  A B C D E F G H I J K L M N O P Q R S T U V W X Y Z # 

Sunday Morning Tabs (ver.1)

Velvet Underground Tabs
Rating:
5/5 (8 votes)
Sunday Morning lessons Tabs too difficult? Try these video lessons and learn fast
                -------------------------------------------------------------------------------
-------------------------------------------------------------------------------

Tuning: Down 1/2 step, slightly flat (EbAbDbGbBbEb)
Transposed chords at bottom

Verse, 2x (G-C-G-C-G-D/F#-Em-A7-D)
|--3----3----3--0----0----0--3----3----3--0----0----0--3----3--2----2--0----0----0--0----0----0--2----2----2--|
|--0----0----0--1----1----1--0----0----0--1----1----1--0----0--3----3--0----0----0--2----2----2--3----3----3--|
|--0----0----0--0----0----0--0----0----0--0----0----0--0----0--2----2--0----0----0--0----0----0--2----2----2--|
|--0----0----0--2----2----2--0----0----0--2----2----2--0----0--0----0--2----2----2--2----2----2--0----0----0--|
|--2----2----2--3----3----3--2----2----2--3----3----3--2----2--0----0--2----2----2--0----0----0---------------|
|--3----3----3---------------3----3----3---------------3----3--2----2--0----0----0----------------------------|

Chorus (G-C-G-C-Am-F-D)
|--3----3----3--0----0----0--3----3----3--0----0----0--0----0----0--0----0----0--1----1----1--2----2----2--|
|--0----0----0--1----1----1--0----0----0--1----1----1--1----1----1--1----1----1--1----1----1--3----3----3--|
|--0----0----0--0----0----0--0----0----0--0----0----0--2----2----2--2----2----2--2----2----2--2----2----2--|
|--0----0----0--2----2----2--0----0----0--2----2----2--2----2----2--2----2----2--3----3----3--0----0----0--|
|--2----2----2--3----3----3--2----2----2--3----3----3--0----0----0--0----0----0---------------0----0----0--|
|--3----3----3---------------3----3----3-----------------------------------------1----1----1---------------|

Solo
|-------------------------------------------------------------------------------------------------------------------|
|----------------------------------------1------------1-------------------------------------------------------------|
|----------------------------------------0h2--0--0----0----------0----0----------------0--0h2--b2.5--(3)--(2.5)--2--|
|-----------0--0h2--0-----0-----2--0--2----------0h2--0--0----0--0h2--0-----0-----0h2-------------------------------|
|----------------------2-----3-------------------------------------------2-----3------------------------------------|
|--3----------------------------------------------------------------------------------------------------------------|
                                                                                               
|----------------------------------------------------------------------------------------------------------------|
|----------------------------------------------------------------------------------------------------------------|
|----------------------------------------------------------------2--0-------0-------0-----2-----2----------------|
|-----0--0-----------0-------------0--0h2--0h2--0-----0-----0h2--------0h2-----0h2-----0-----0-----0h2--0--------|
|-----------------0-----------0h2-----2----2-------2-----0-------------------------------------------------2--0--|
|--3--------3--2--------2--0-------------------------------------------------------------------------------------|

Transposed Chords
Verse: F#-B-F#-B-F#-C#/F-D#m-G#7-C#
Chorus: F#-B-F#-B-G#m-E-C#


| /  slide up
| \  slide down
| h  hammer-on
| p  pull-off
| ~  vibrato
| +  harmonic
| x  Mute note
===============================================================================
            

comments powered by Disqus
↑ Back to top | Velvet Underground Tabs for Sunday Morning. Lyrics for acoustic guitar and electric guitar. Tablatures and chords are parodies/interpretations of the original songs. You may use it for private study, scholarship, research or language learning purposes only