>
 >
Rock And Roll

Rock And Roll Guitar Tabs

Velvet Underground - Rock And Roll chords, tabs, tablatures, lyrics

Guitar lessons | Add/correct | Request | Top 50 tabs Artists:  A B C D E F G H I J K L M N O P Q R S T U V W X Y Z 0-9

Rock And Roll Guitar Tabs – Velvet Underground

CD, Sheet music, Poster

Do you like Rock And Roll? Share with your friends now
Tabs
-------------------------------------------------------------------------------
                           ROCK & ROLL - The Velvet Underground
-------------------------------------------------------------------------------

Tuning: Standard

Intro/Verse (C-Bb6-F6-F-G-F-C)
e|-------------------------------10----10------------------------------------------------------|
B|---8-----8-----8--8----8----8--10----10----x--x--10--12--10---8-----8-----8---8-----8-----8--|
G|---9-----9-----9--7----7----7--10----10----x--x--10--12--10---9-----9-----9---9-----9-----9--|
D|--10----10----10--8----8----8--------------------------------10----10----10--10----10----10--|
A|---------------------------------------------------------------------------------------------|
E|---------------------------------------------------------------------------------------------|

Prechorus (Dm-F-Gsus2-F)
e|-------------------------------------------|
B|-------------------------------------------|
G|--7----7----5----5----0-----0----5----5----|
D|--7----7----7----7----7-----7----7----7----|
A|--5----5----8----8---10----10----8----8----|
E|-------------------------------------------|

Chorus (C-F-C-F)
e|------------------------------------------|
B|--5----5--------------5----5--------------|
G|--5----5----5----5----5----5----5----5----|
D|--5----5----7----7----5----5----7----7----|
A|------------8----8--------------8----8----|
E|------------------------------------------|

First instrumental break (2 guitars, w/slide, over the verse figure)
e|---------------------------------------------------------------------------|
B|---------------------------------------------------------------------------|
G|--5--------7/9\7--------9/10--------9/10\5---------------------------------|
D|---------------------------------------------------------------------------|
A|---------------------------------------------------------------------------|
E|---------------------------------------------------------------------------|

Second break (rhythm guitar plays C throughout)
e|--15b17r15--12-----------------------------------------------------------------------|
B|----------------15b17r15--13--------13--13--15b17--15b17--15b17----13--------13--13--|
G|------------------------------14-----------------------------------------14----------|
D|-------------------------------------------------------------------------------------|
A|-------------------------------------------------------------------------------------|
E|-------------------------------------------------------------------------------------|

e|--15b17--15----x--x--15b17--15--12-----------------12--------------------------------|
B|------------------------------------15--13--15b17------15--13--------------13--13----|
G|---------------------------------------------------------------14--12--14------------|
D|-------------------------------------------------------------------------------------|
A|-------------------------------------------------------------------------------------|
E|-------------------------------------------------------------------------------------|

e|-------------15---------15---------15----------15--------------------|
B|--13--15b17------15b17------15b17------15b7--------15b17r15--13------|
G|-----------------------------------------------------------------14--|
D|---------------------------------------------------------------------|
A|---------------------------------------------------------------------|
E|---------------------------------------------------------------------|

e|---------15---------15---------15----------------------------------------------------------------------|
B|--15b17------15b17------15b17--------r15--13------13--15b17--15b17--15b17--15b17--15b17--15b17--15b17--|
G|----------------------------------------------14-------------------------------------------------------|
D|-------------------------------------------------------------------------------------------------------|
A|-------------------------------------------------------------------------------------------------------|
E|-------------------------------------------------------------------------------------------------------|

e|-----------------------------------------|
B|--15b17--15b17----13--------13----15b17--|
G|----------------------14-----------------|
D|-----------------------------------------|
A|-----------------------------------------|
E|-----------------------------------------|

2 guitars, w/slide, over the verse figure
e|---------------------------------------------------------|
B|--5--------5/8----8\6--------6/10--------8----3/5--------|
G|---------------------------------------------------------|
D|---------------------------------------------------------|
A|---------------------------------------------------------|
E|---------------------------------------------------------|

Third insturmental break (no rhythm)
e|----------------------------------8--11p8------------------------|
B|---------------8--10p8-----8--10-----------10--8-----------------|
G|-------5--7/9-----------9-------------------------9\7--5---------|
D|--5/7-----------------------------------------------------7\5----|
A|-----------------------------------------------------------------|
E|-----------------------------------------------------------------|

Ending ryhthm (C-Bb6)
e|----------------------------------------------|
B|---8-----8----8----8-----8-----8----8----8----|
G|---9-----9----7----7-----9-----9----7----7----|
D|--10----10----8----8----10----10----8----8----|
A|----------------------------------------------|
E|----------------------------------------------|

Rhythm switches to this after a while (C-F)
e|-----------------------------------------------------|
B|--5---5----5--6----6----6--5----5----5--6----6----6--|
G|--5---5----5--5----5----5--5----5----5--5----5----5--|
D|--5---5----5--7----7----7--5----5----5--7----7----7--|
A|-----------------------------------------------------|
E|-----------------------------------------------------|

Ending lead
e|--22b23--22--20--22b23--22--20--22b23--22--20------------------------------------|
B|--20-----20--20--20----------------------------22--20--17------------17----------|
G|-----------------------------------------------------------19--17--------19--17--|
D|---------------------------------------------------------------------------------|
A|---------------------------------------------------------------------------------|
E|---------------------------------------------------------------------------------|

e|-----------------------------------------------------------------------------------------------|
B|-----------------------------------------------------------------------------------------------|
G|--17------17--17--19b20r19--19b20r19--19b20r19--17------17--19b20r19--19b20r19--19b20r19--17\--|
D|------19--------------------------------------------19-----------------------------------------|
A|-----------------------------------------------------------------------------------------------|
E|-----------------------------------------------------------------------------------------------|

e|----------------------------------------------------------------------------------22b23--22--|
B|-------13------14------15------16------17------18------19------20------21-----22-------------|
G|--/12------13------14------15------16------17------18------19------20-----21-----------------|
D|---------------------------------------------------------------------------------------------|
A|---------------------------------------------------------------------------------------------|
E|---------------------------------------------------------------------------------------------|

e|--22b23--22--20---------------------------------------------------------------|
B|-----------------22--20--17---------20---------20---------20------------------|
G|-----------------------------19b20------19b20------19b20------17------17--17--|
D|------------------------------------------------------------------19----------|
A|------------------------------------------------------------------------------|
E|------------------------------------------------------------------------------|
Fade out

| b  bend to the next note
| r  release to the next note
| /  slide up
| \  slide down
| h  hammer-on
| p  pull-off
| ~  vibrato
| +  harmonic
| x  Mute note
===============================================================================





Comments


Popular Velvet Underground tabs & chords
There She Goes Chords
What Goes On Chords
Beginning To See The Light Tabs
Cool It Down Tabs
Heroin 1 Tabs
I'm Waiting For The Man 1 Tabs
Lady Godivas Operation Tabs
Sad Song Tabs
Some Kinda Love Tabs
Sunday Morning Tabs


Song lyrics



↑ Back to top | Tablatures and chords are parodies/interpretations of the original songs. You may use it for private study, scholarship, research or language learning purposes only
© 2014 AZChords.com Contact us | Privacy policy | DMCA | Add/correct tabs | Request tabs | Top 50 tabs