» » »

Velvet Underground, Ride Into The Sun Tabs (ver.1)

Artists:  A B C D E F G H I J K L M N O P Q R S T U V W X Y Z # 

Ride Into The Sun Tabs (ver.1)

Velvet Underground Tabs
 Rating:
4/5 (5 votes)
Ride Into The Sun lessons Tabs too difficult? Try these video lessons and learn fast
                * non-distortion guitar

      {D          /A}              {Bm         /Bm    .A}
 1e --------10-----14-12-10h12-10-------9---7--------9----7\--|
 2B -----10---------------------------------------------------|
 3G --11-------11-------------------5/7---7------7/9---9------|
 4D ----------------------------------------------------------|
 5A ----------------------------------------------------------|
 6E ----------------------------------------------------------|

  {G       /A}               {D}
------3----------5-----5---------10--------------10-------10--------|
--------3----5h7---5h7---5----------10-----10h12----10h12----10h12--|
--3h4-----4------------------/11-------11---------------------------|
--------------------------------------------------------------------|
--------------------------------------------------------------------|
--------------------------------------------------------------------|

  {D          /A}              {Bm         /Bm    .A}
--------10-----14-12-10h12-10-------9---7--------9----7\--|
-----10---------------------------------------------------|
--11-------11-------------------7/9---7------7/9---9------|
----------------------------------------------------------|
----------------------------------------------------------|
----------------------------------------------------------|

  {G       /A}               {D}
------3----------5-----5---------10------------------------------|
--------3----5h7---5h7---5----------10----------10------10-------|
--3h4-----4------------------/11-------11--9h11----9h11----9h11--|
-----------------------------------------------------------------|
-----------------------------------------------------------------|
-----------------------------------------------------------------|




* distortion guitar: scale

         4   5   6   7   8   9  10  11  12
1e --|---|---|---|---|---|---|---|---|----|
2B --|---|---|---|---|---|---|---|---|----|
3G --|---|---|---|---|---|---|---|---|----|   ...
4D --|-o-|-o-|---|-o-|---|-o-|---|-o-|-o--|
5A --|---|-o-|---|---|---|---|---|---|----|
6E --|---|---|---|---|---|---|---|---|----|

           12  13  14  15  16  17  18  19
      --|---|---|---|---|---|---|---|---|--|
      --|---|---|---|---|---|---|---|---|--|
...   --|---|---|---|---|---|---|---|---|--|
      --|-o-|---|-o-|---|-o-|-o-|---|-o-|--|
      --|---|---|---|---|---|---|---|---|--|
      --|---|---|---|---|---|---|---|---|--|



*** please note ***

h - hammer on
p - pull off
b - bend string up
r - release bend
/ - slide up
\ - slide down
v - vibrato
^ - harmonics
            
Submit corrections

comments powered by Disqus
↑ Back to top | Velvet Underground Tabs for Ride Into The Sun. Lyrics for acoustic guitar and electric guitar. Tablatures and chords are parodies/interpretations of the original songs. You may use it for private study, scholarship, research or language learning purposes only