» » »

Velvet Underground, Jesus Tabs (ver.1)

Artists:  A B C D E F G H I J K L M N O P Q R S T U V W X Y Z # 

Jesus Tabs (ver.1)

Velvet Underground Tabs
 Rating:
4/5 (8 votes)
Jesus lessons Tabs too difficult? Try these video lessons and learn fast
                



(Intro)

e:--------------------------|---------------------------|
B:--------------------------|---------------------------|
G:----0-----0--------0-----0|----0-----0--------0-----0-|
D:-------0--------0-----0---|-------0--------0-----0----|
A:--------------------------|---------------------------|
E:-3-----------3------------|-3-----------3-------------|


Guitar 1
     
   G                          G
e:--------------------------|---------------------------|
B:--------------------------|---------------------------|
G:----0-----0--------0-----0|----0-----0--------0-----0-|
D:-------0--------0-----0---|-------0--------0-----0----|
A:--------------------------|---------------------------|
E:-3-----------3------------|-3-----------3-------------|


Guitar 2

e:--------------------------|---------------------------|
B:--------------------------|---------------------------|
G:--5b(4)-------------------|-5b(4)---------------------|
D:--------------------------|---------------------------|
A:--------------------------|---------------------------|
E:--------------------------|---------------------------|


Guitar 3

e:--------------------------|---------------------------|
B:--------------------------|---------------------------|
G:--13---12-----------------|---13---12-----------------|
D:--------------------------|---------------------------|
A:--------------------------|---------------------------|
E:--------------------------|---------------------------|

   Jesus                       Jesus        




				(Two times)
Guitar 1		     ____^^^^^__________________  	

e:--------------------------|--------------------------|
B:--------------------------|--------------------------|
G:--3-----3-------2-----0---|----0-----0--------0-----0|
D:--------------------------|-------0--------0-----0---|
A:--------------------------|--------------------------|
E:--------------------------|-3-----------3------------|


Guitar 2

e:--------------------------|--------------------------|
B:--7/8---8---8-----6----5--|--------------------------|
G:--4/5---5---5-----5----5--|--5b(4)-------------------|
D:--4/5---5---5-----5----5--|--------------------------|
A:--------------------------|--------------------------|
E:--------------------------|--------------------------|


Guitar 3

e:----13-----13---12----11-|---------------------------|
B:-------------------------|-----13-----12-------------|
G:-------------------------|---------------------------|
D:-------------------------|---------------------------|
A:-------------------------|---------------------------|
E:-------------------------|---------------------------|


  Help me find my              proper place




Bm	      C			
Help me in my weakness


             A           C
Cause I'm falling out of grace


Jesus, Jesus
            
Submit corrections

comments powered by Disqus
↑ Back to top | Velvet Underground Tabs for Jesus. Lyrics for acoustic guitar and electric guitar. Tablatures and chords are parodies/interpretations of the original songs. You may use it for private study, scholarship, research or language learning purposes only