» » »

Velvet Underground, I'll Be Your Mirror Tabs (ver.2)

Artists:  A B C D E F G H I J K L M N O P Q R S T U V W X Y Z # 

I'll Be Your Mirror Tabs (ver.2)

Velvet Underground Tabs
4/5 (4 votes)
I'll Be Your Mirror lessons Tabs too difficult? Try these video lessons and learn fast
                Tuning: D tuning (D-G-C-F-A-D)
 This a combination of bass and guitar it sounds very nice
  G           C                  G             C

 --------------------------------------------------------|   x2   
 -----------------         G-C-D  (instead of G-C-G-C-D--| x2
during the verse its basically the same
but with this progression:

                      CHORUS (when you think...)
  G                   C     D
 ---------------------7-----9------|  x4 (the 4 th time you
 ---------------------0------------|       have to play only the
 -0--------------------------------|       1st part the "G" part )

                     2nd  CHORUS (please put down your hands ..)
 Am                           C                 D
 ---9------------9---------9--0-----------------9---/-0-2-2-0-2-| x2 last
 -----------------------------------------------7---/-0-2-2-0-2-|  five
 -7-------------------------------------------------/-----------|  notes

   then repeat all except the intro
   and then last part (i'll be your mirroooooooooor)
  G               C
 ------------------0-0-0--0--0-0-0-0--|  x as many time as you wish
Submit corrections

comments powered by Disqus
↑ Back to top | Velvet Underground Tabs for I'll Be Your Mirror. Lyrics for acoustic guitar and electric guitar. Tablatures and chords are parodies/interpretations of the original songs. You may use it for private study, scholarship, research or language learning purposes only