» » »

Velvet Underground, Here She Comes Now Tabs (ver.2)

Artists:  A B C D E F G H I J K L M N O P Q R S T U V W X Y Z # 

Here She Comes Now Tabs (ver.2)

Velvet Underground Tabs
Rating:
0/5 (0 votes)
Here She Comes Now lessons Tabs too difficult? Try these video lessons and learn fast
                Here She Comes Now
Version on the Nirvana Heart Shaped Box II Set.

 /=slide up
 \=slide down

INTRO-(*let 0 on string D ring)
|--------------------------------------------------------------------------|
|-------------7----------7---------------------12--------------10------|
|---------7------7--7-------7----7/11--11-------11\9--9-------9--|
|----0---------------------------------------------------------------------|
|----------------------------|
|----------------------------|
INTRO 2 and INTERLUDE-(*let 0 on string D ring)
|----------------------------------------------------------------------------|

|---------------7----------7------------------12--------------10---10---|
|---------7----7---7--7--7--7--7/11-11--11---11\9--9--9----9----|
|----0-----------------------------------------------------------------------|

|-------------------------------|
|-------------------------------|
VERSE--(*let 0 on string D ring)
|------------------------------------|
|---------------7---------7--------|
|----------7--------7-------------|
|----0------------------------------|
|------------------------------------|
|------------------------------------|
(play the 0 once then play the 7  7 part for the rest of the verse)
CHORUS
D-x577xx
C-x355xx
B5-x133xx
I'm not going to tell you the timing and strumming but I will tell you the
order.
It is -D  C  D  C  B5
SOLO-I have no clue so good luck.
            

comments powered by Disqus
↑ Back to top | Velvet Underground Tabs for Here She Comes Now. Lyrics for acoustic guitar and electric guitar. Tablatures and chords are parodies/interpretations of the original songs. You may use it for private study, scholarship, research or language learning purposes only