» » »

Velvet Underground, Femme Fatale Tabs (ver.2)

Artists:  A B C D E F G H I J K L M N O P Q R S T U V W X Y Z # 

Femme Fatale Tabs (ver.2)

Velvet Underground Tabs
 Rating:
4/5 (4 votes)
Femme Fatale lessons Tabs too difficult? Try these video lessons and learn fast
                -----------------------------------------------------------------------------
                             Femme Fatale - Velvet Underground
-----------------------------------------------------------------------------

Tuning: Standard

                               (at :21 play this part, figure out strumming)
e|------------------------------------1--3-------------------------------------|
B|---5---5-5----10---10---------5--1--3--0-------------------------------------|
G|---4---4-4-----9----9---------4--2--2--0-------------------------------------|
D|---5---5-5----10---10---------5--3--0--0-------------------------------------|
A|-3---3------8----8----8-7-----3--3-----2-------------------------------------|
E|---------------------------------1-----3-------------------------------------|
   Chorus is C, then F           Directly after this it goes Dm, Bm
e|-------------------------------1-----3-------------------------------------|
B|-1-1-1-1-1-1-1-1-1-1-1-1-1-1---3--3--0-------------------------------------|
G|-0-0-0-0-0-0-0-2-2-2-2-2-2-2---2--3--0-------------------------------------|
D|-2-2-2-2-2-2-2-3-3-3-3-3-3-3---0--3--0-------------------------------------|
A|-3-3-3-3-3-3-3-3-3-3-3-3-3-3------1--2-------------------------------------|
E|---------------1-1-1-1-1-1-1---------3-------------------------------------|

Those few chords are essentially it. Only use this as a rough guide.

| /  slide up
| \  slide down
| h  hammer-on
| p  pull-off
| ~  vibrato
| +  harmonic
| x  Mute note
===============================================================================
            
Submit corrections

comments powered by Disqus
↑ Back to top | Velvet Underground Tabs for Femme Fatale. Lyrics for acoustic guitar and electric guitar. Tablatures and chords are parodies/interpretations of the original songs. You may use it for private study, scholarship, research or language learning purposes only