>
 >
Surrender

Surrender Bass Tabs

Velvet Revolver - Surrender chords, tabs, tablatures, lyrics

Guitar lessons | Add/correct | Request | Top 50 tabs Artists:  A B C D E F G H I J K L M N O P Q R S T U V W X Y Z 0-9

Surrender Bass Tabs – Velvet Revolver

CD, Sheet music, Poster

Do you like Surrender? Share with your friends now
Bass TabsChordsUkulele
-------------------------------------------------------------------------------
			     Surrender - Velvet Revolver
-------------------------------------------------------------------------------


Tuning:Standard

Intro:
G|----------------------33-3h5-3---------------------------------------------|
D|--------------------33--------3--------------------------------------------|
A|---------------------------------------------------------------------------|
E|-4-44-444-444-44-66------------4-44-44-4-44-44-6666666666666666------------|

Verse 1:
G|---------------------------------------------------------------------------|
D|-4-4-444------------------------4-4-444------------------------------------|
A|--------4-4-4h6p4-2-1------------------4-4-4h6p4-2-1-----------------------|
E|---------------------4-22-222222--------------------4-22-222222------------|

Pre-chorus:
G|---------------------------------------------------------------------------|
D|---------------------------------------------------------------------------|
A|-----------------2222222222222222-----------------222222221414141414141414-|
E|00000000-22222222----------------00000000-22222222-------------------------|

Chorus:
G|---------------------------------------------------------------------------|
D|---------------------------------------------------------------------------|
A|-22222222--------------------------22222222--------------------------------|
E|---------44444444-22222222-00000000--------44444444-22222222-00000000------|

Chorus Outro:
G|---------------------------------------------------------------------------|
D|---------------------------------------------------------------------------|
A|---------------------------------------------------------------------------|
E|0000000000000000-22222222--------------------------------------------------|

Bridge:
G|---------------------44-4h6-4----------------------------------------------|
D|-------------------44--------4---------------------------------------------|
A|---------------------------------------------------------------------------|
E|5-55-555-5-55-55-77-----------5-55-555-5-55-55-7777777777777777------------|

Verse 2:
G|---------------------------------------------------------------------------|
D|4-4-444------------------------4-4-444-------------------------------------|
A|-------4-4-4h5p4-2-1------------------4-4-4h6p4-2-1------------------------|
E|--------------------4-22-222222--------------------4-22-222222-------------|

Pre-chorus:
G|---------------------------------------------------------------------------|
D|---------------------------------------------------------------------------|
A|-----------------2222222222222222-----------------222222221414141414141414-|
E|00000000-22222222----------------00000000-22222222-------------------------|

Chorus:
G|---------------------------------------------------------------------------|
D|---------------------------------------------------------------------------|
A|22222222--------------------------22222222---------------------------------|
E|--------44444444-22222222-00000000--------44444444-22222222-00000000-------|

Chorus Outro:
G|---------------------------------------------------------------------------|
D|---------------------------------------------------------------------------|
A|---------------------------------------------------------------------------|
E|0000000000000000-22222222--------------------------------------------------|

Bridge:
G|---------------------------------------------------------------------------|
D|---------------------------------------------------------------------------|
A|---------------------------------------------------------------------------|
E|5-55-555-5--55-55-7-77-77-77777-5-55-555-5-55-7777777777777777-------------|

Verse 3:
G|---------------------------------------------------------------------------|
D|5-5-555------------------------5-5-555-------------------------------------|
A|-------5-5-5h7p5-3-2------------------5-5-5h7p5-3-2------------------------|
E|--------------------5-33-333333--------------------5-33-333333-------------|

Prechorus:
G|---------------------------------------------------------------------------|
D|---------------------------------------------------------------------------|
A|-----------------3333333333333333-----------------3333333333333333---------|
E|11111111-33333333----------------11111111-33333333-------------------------|

Chorus:
G|---------------------------------------------------------------------------|
D|---------------------------------------------------------------------------|
A|33333333--------------------------33333333---------------------------------|
E|--------55555555-33333333-11111111--------55555555-33333333-11111111-------|

Chorus Outro:
G|---------------------------------------------------------------------------|
D|---------------------------------------------------------------------------|
A|---------88888888-1010101010101010-----------------------------------------|
E|11111111-------------------------------------------------------------------|

Interlude:
G|---------------------------------------------------------------------------|
D|---------------------------------------------------------------------------|
A|10-1010-101010--------10-1010-101010--------10-1010-101010-----------------|
E|--------------8-88-888--------------33333333--------------8-88-888---------|

G|---------------------------------------------------------------------------|
D|---------------------------------------------------------------------------|
A|10-1010-101010-------------------------------------------------------------|
E|--------------33333333-----------------------------------------------------|

Chorus:
G|---------------------------------------------------------------------------|
D|---------------------------------------------------------------------------|
A|33333333--------------------------33333333---------------------------------|
E|--------55555555-33333333-11111111--------55555555-33333333-11111111-------|

G|---------------------------------------------------------------------------|
D|---------------------------------------------------------------------------|
A|33333333--------------------------33333333---------------------------------|
E|--------55555555-33333333-11111111--------55555555-33333333-11111111-------|

G|---------------------------------------------------------------------------|
D|---------------------------------------------------------------------------|
A|33333333-------------------------------------------------------------------|
E|--------55555555-33333333-11111111-----------------------------------------|

Chorus Outro:
G|---------------------------------------------------------------------------|
D|---------------------------------------------------------------------------|
A|--------88888888-1010101010101010------------------------------------------|
E|11111111-------------------------------------------------------------------|

Outro:
G|---------------------------------------------------------------------------|
D|----------------------------------8----------------------------------------|
A|-----------------888-888-666666--------------------------------------------|
E|888-888-666-666-8--------------6-------------------------------------------|

Thats it.Its easy but listen for the timing.


| /  slide up
| \  slide down
| h  hammer-on
| p  pull-off
| ~  vibrato
| +  harmonic
| x  Mute note
===============================================================================





Comments


Popular Velvet Revolver tabs & chords
Come On Come In Bass Tabs
Slither Bass Tabs
For A Brother Tabs
Gravedancer 1 Tabs
Headspace (Intro) Tabs
Headspace 1 Tabs
Let It Roll Tabs
Messages 1 Tabs
She Builds Quick Machines Tabs
Sucker Train Blues Tabs


Song lyrics



↑ Back to top | Tablatures and chords are parodies/interpretations of the original songs. You may use it for private study, scholarship, research or language learning purposes only
© 2014 AZChords.com Contact us | Privacy policy | DMCA | Add/correct tabs | Request tabs | Top 50 tabs