» » »

Sucker Train Blues Bass tabs (ver.2)

Artists:  A B C D E F G H I J K L M N O P Q R S T U V W X Y Z # 

Sucker Train Blues Bass tabs (ver.2)

Velvet Revolver
Rating:
0/5 (0 votes)
Tabs too difficult? Try these video lessons and learn fast.
                standard tuning


|--------------||----------------------------|
|-----------14-||o-(14)-14-14-14-13-14-14-14-|
|--------------||o---------------------------|
|--------------||----------------------------|



|-------------------12----|---------------------------|
|-14-14-14-14-13-14----14-|-(14)-14-14-14-13-14-14-14-|
|-------------------------|---------------------------|
|-------------------------|---------------------------|


                              4x
|-----------------------------||
|-14-14-14-14-14-------12-14-o||
|----------------12h14-------o||
|-----------------------------||



|---------------------------|--------------------||
|-(14)-14-14-14-13-14-14-14-|-14-14-14-0-5-4-0---||
|---------------------------|--------------------||
|---------------------------|------------------3-||


 Pre-Verse

|-------------------|-----------------|-------------------|-----------------|
|-------------------|-----------------|-------------------|-----------------|
|-------------------|-----------------|-------------------|-----------------|
|-(3)-3-3-3-3-3-3-3-|-3-3-3-3-3-3-3-0-|-(0)-0-0-0-0-0-0-0-|-0-0-0-0-0-0-0-3-|



|-------------------|-----------------|-------------------|-----------------||
|-------------------|-----------------|-------------------|-----------------||
|-------------------|-----------------|-------------------|---------------7-||
|-(3)-3-3-3-3-3-3-3-|-3-3-3-3-3-3-3-0-|-(0)-0-0-0-0-0-0-0-|-0-0-0-0-0-0-0---||


   Verse
    
 
||--------------------|-----------------|
||o-------------------|-------------5---|
||o-(7)-7-7-7-6-7-7-7-|-7-7-7-7-6-7---7-|
||--------------------|-----------------|


                                        3x
|-------------------|--------------------||
|-------------------|-------------------o||
|-(7)-7-7-7-6-7-7-7-|-7-7-7-7-7-----5-7-o||
|-------------------|-----------5h7------||



|-------------------|-----------------|-------------------|-------------------||
|-------------------|-------------5---|-------------------|-------5---5-------||
|-(7)-7-7-7-6-7-7-7-|-7-7-7-7-6-7---7-|-(7)-7-7-7-6-7-7-7-|-7-5h7---7---7-5-0-||
|-------------------|-----------------|-------------------|-------------------||


 Pre-Chorus

|-------------------|-------------------|-------------------|-----------------|
|-------------------|-------------------|-------------------|-----------------|
|-(0)---------------|-------------------|-------------------|-----------------|
|-----5-5-5-5-5-5-3-|-(3)-3-3-3-3-3-3-7-|-(7)-7-7-7-7-7-7-7-|-7-7-7-7-7-7-7-5-|



|-------------------|-------------------|-------------------|-----------------||
|-------------------|-------------------|-------------------|-----------------||
|-------------------|-------------------|-------------------|-----------------||
|-(5)-5-5-5-5-5-5-3-|-(3)-3-3-3-3-3-3-7-|-(7)-7-7-7-7-7-7-7-|-7-7-7-7-6-5-0-3-||


 Chorus

|-------------------|-----------------|-------------------|-----------------|
|-------------------|-----------------|-------------------|-----------------|
|-------------------|-----------------|-------------------|-----------------|
|-(3)-3-3-3-3-3-3-3-|-3-3-3-3-3-3-3-0-|-(0)-0-0-0-0-0-0-0-|-0-0-0-0-0-0-0-3-|


 
|-------------------|-----------------|-------------------|-----------------|
|-------------------|-----------------|-------------------|-----------------|
|-------------------|-----------------|-------------------|-------3-5-------|
|-(3)-3-3-3-3-3-3-3-|-3-3-3-3-3-3-3-0-|-(0)-0-0-0-0-0-0-0-|-0-2-3-----1-2-3-|

  
|-------------------|-----------------|-------------------|-----------------|
|-------------------|-----------------|-------------------|-----------------|
|-------------------|-----------------|-------------------|-----------------|
|-(3)-3-3-3-3-3-3-3-|-3-3-3-3-3-3-3-0-|-(0)-0-0-0-0-0-0-0-|-0-0-0-0-0-0-0-3-|


|-------------------|-----------------|
|-------------------|-----------------|
|-------------------|-----------------|
|-(3)-3-3-3-3-3-3-3-|-3-3-3-3-3-3-3-0-|



|-------------------|-----------------||-----------------||
|-------------------|-----------------||-----------------||
|-------------------|---------------7-||---7-7-7-7-7-7-5-||
|-(0)-0-0-0-0-0-0-0-|-0-0-0-0-0-0-0---||-0---------------||


 Bridge

|-------------------|-------------------|-------------------|-----------------|
|-------------------|-------------------|-------------------|-----------------|
|-(5)-5-5-5-5-5-5-3-|-(3)-3-3-3-3-3-3---|-------------------|---------------5-|
|-------------------|-----------------0-|-(0)-0-0-0-0-0-0-0-|-0-0-0-0-0-0-0---|



|-------------------|-------------------|-------------------|-----------------|
|-------------------|-------------------|-------------------|-----------------|
|-(5)-5-5-5-5-5-5-3-|-(3)-3-3-3-3-3-3---|-------------------|---------------5-|
|-------------------|-----------------0-|-(0)-0-3p0-0-0-3p0-|-0-0-3p0-0-0-3---|



|-------------------|-------------------|-------------------|-----------------|
|-------------------|-------------------|-------------------|-----------------|
|-(5)-5-5-5-5-5-5-3-|-(3)-3-3-3-3-3-3---|-------------------|---------------5-|
|-------------------|-----------------0-|-(0)-0-0-0-0-0-0-0-|-0-0-0-0-0-0-0---|



|-----------------|-------------------|-------------------|------------------||
|-----------------|-------------------|-------------------|-/9-9-9-9-9-9-9---||
|-5-5-5-5-5-5-5-3-|-(3)-3-3-3-3-3-3-2-|-(2)-2-2-2-2-2-2-2-|------------------||
|-----------------|-------------------|-------------------|----------------0-||


 Guitar Solo

|-------------------|-----------------|-------------------|-----------------|
|-------------------|-----------------|-------------------|-----------------|
|-------------------|-----------------|-------------------|-----------------|
|-(0)-0-0-0-0-0-0-0-|-0-0-0-0-0-0-0-3-|-(3)-3-3-3-3-3-3-3-|-3-3-3-3-3-3-3-0-|



|-------------------|-----------------|-------------------|-----------------|
|-------------------|-----------------|-------------------|-----------------|
|-------------------|-----------------|-------------------|-----------------|
|-(0)-0-0-0-0-0-0-0-|-0-0-0-0-0-0-0-3-|-(3)-3-3-3-3-3-3-3-|-3-3-3-3-3-3-5-0-|



|-------------------|-----------------|-------------------|-----------------|
|-------------------|-----------------|-------------------|-----------------|
|-------------------|-----------------|-------------------|-----------------|
|-(0)-0-0-0-0-0-0-0-|-0-0-0-0-0-0-0-3-|-(3)-3-3-3-3-3-3-3-|-3-3-3-3-3-3-3-5-|



|-------------------|-------------------|-------------------|-----------------||
|-------------------|-------------------|-------------------|-----------------||
|-------------------|-------------------|-------------------|-----------------||
|-(5)-5-5-5-5-5-5-3-|-(3)-3-3-3-3-3-3-7-|-(7)-7-7-7-7-7-7-7-|-7-7-7-7-7-7-7-8-||


 Breakdown

|---------------|------------|---------------||
|---------------|------------|---------------||
|---------------|------------|---------------||
|-(8)\----------|------------|-\13\--------3-||


   Out-Chorus

||--------------------|-----------------|
||o-------------------|-----------------|
||o-------------------|-----------------|
||--(3)-3-3-3-3-3-3-3-|-3-3-3-3-3-3-3-0-|


                                        5x
|-------------------|-------------------||
|-------------------|------------------o||
|-------------------|------------------o||
|-(0)-0-0-0-0-0-0-0-|-0-0-0-0-0-0-0-3---||



|-------------------|-----------------|-------------------|-----------------||
|-------------------|-----------------|-------------------|-----------------||
|-------------------|-----------------|-------------------|-----------------||
|-(3)-3-3-3-3-3-3-3-|-3-3-3-3-3-3-3-0-|-(0)-0-0-0-0-0-0-0-|-0-0-0-0-0-0-0-0-||



|--------------|------------|------------|--------|
|--------------|------------|------------|--------|
|--------------|------------|------------|--------|
|-(0)----------|---------0--|-(0)--------|-(0)----|
            
Tabs too difficult? Try these video lessons and learn fast.


comments powered by Disqus
↑ Back to top | Tablatures and chords are parodies/interpretations of the original songs. You may use it for private study, scholarship, research or language learning purposes only