>
 >
Slither 2

Slither 2 Bass Tabs

Velvet Revolver - Slither 2 chords, tabs, tablatures, lyrics

Guitar lessons | Add/correct | Request | Top 50 tabs Artists:  A B C D E F G H I J K L M N O P Q R S T U V W X Y Z 0-9

Slither 2 Bass Tabs – Velvet Revolver

CD, Sheet music, Poster

Do you like Slither 2? Share with your friends now
Bass TabsBass Tabs v2Bass Tabs v3Bass Tabs v4ChordsDrum TabsDrum Tabs v2TabsTabs v2Tabs v3Tabs v4Tabs v5Tabs v6Ukulele

SLITHER (Bassline)
As recorded by Velvet Revolver




 

 

Gtr I (D A D G) - 'Staff'


  Q=141
 4/4
  Gtr I
  E E E E E E E E   E E E E E E E E   E E E E E E E E   E E E E E E E E
|-----------------|-----------------|-----------------|------------------|
|---------3-3-3---|---------3-3-3-3-|---------3-3-3---|---------3-3-3-3--|
|-----------------|-----------------|-----------------|------------------|
|-0-0-0-0-------0-|-0-0-0-0---------|-0-0-0-0-------0-|-0-0-0-0----------|


  E E E E E E E E   E E E E E E E E   E E E E E E E E   E E E E E E E E
|-----------------|-----------------|-----------------|-----------------|
|---------3-3-3---|---------3-3-3-3-|---------3-3-3---|---------3-3-3-3-|
|-----------------|-----------------|-----------------|-----------------|
|-0-0-0-0-------0-|-0-0-0-0---------|-0-0-0-0-------0-|-0-0-0-0---------|


  E E E E E E E E   E E E E E E E E   E E E E E E E E   E E E E E E E E
|-----------------|-----------------|-----------------|-----------------|
|---------3-3-3---|---------3-3-3-3-|---------3-3-3---|---------3-3-3-3-|
|-----------------|-----------------|-----------------|-----------------|
|-0-0-0-0-------0-|-0-0-0-0---------|-0-0-0-0-------0-|-0-0-0-0---------|


  E E E E E E E E   E E E E E E E E   E E E E E E E E   W
|-----------------|-----------------|-----------------|------|
|---------3-3-3---|---------3-3-3-3-|---------3-3-3---|------|
|-----------------|-----------------|-----------------|------|
|-0-0-0-0-------0-|-0-0-0-0---------|-0-0-0-0-------0-|------|


  E E E E E E E  E   E E E E E E E E   E E E E E E E  E   E E E E E E E E
|------------------|-----------------|------------------|-----------------|
|------------------|-----------------|------------------|-----------------|
|------------------|-----------------|------------------|-----------------|
|-0-3-4-0-6-7-0-10-|-0-6-7-0-5-0-3-4-|-0-3-4-0-6-7-0-10-|-0-6-7-0-5-0-3-4-|


  E E E E E E E  E   E E E E E E E E   E E E E E E E  E   E E E E E E E E
|------------------|-----------------|------------------|-----------------|
|------------------|-----------------|------------------|-----------------|
|------------------|-----------------|------------------|-----------------|
|-0-3-4-0-6-7-0-10-|-0-6-7-0-5-0-3-4-|-0-3-4-0-6-7-0-10-|-0-6-7-0-5-0-3-4-|


  E E E E E E E  E   E E E E E E E E   E E E E E E E  E   E E E E E E E E
|------------------|-----------------|------------------|-----------------|
|------------------|-----------------|------------------|-----------------|
|------------------|-----------------|------------------|-----------------|
|-0-3-4-0-6-7-0-10-|-0-6-7-0-5-0-3-4-|-0-3-4-0-6-7-0-10-|-0-6-7-0-5-0-3-4-|


  E E E E E E E  E   E E E E E E E E   E E E E E E E  E   E E E E E E E E
|------------------|-----------------|------------------|-----------------|
|------------------|-----------------|------------------|-----------------|
|------------------|-----------------|------------------|-----------------|
|-0-3-4-0-6-7-0-10-|-0-6-7-0-5-0-3-4-|-0-3-4-0-6-7-0-10-|-0-6-7-0-5-0-3-4-|


  E E E E E E E  E   E E E E E E E E   E E E E E E E  E   E E E E E E E E
|------------------|-----------------|------------------|-----------------|
|------------------|-----------------|------------------|-----------------|
|------------------|-----------------|------------------|-----------------|
|-0-3-4-0-6-7-0-10-|-0-6-7-0-5-0-3-4-|-0-3-4-0-6-7-0-10-|-0-6-7-0-5-0-3-4-|


  E E E E E E E  E   E E E E E E E E   E E E E E E E  E   E E E E E E E E
|------------------|-----------------|------------------|-----------------|
|------------------|-----------------|------------------|-----------------|
|------------------|-----------------|------------------|-----------------|
|-0-3-4-0-6-7-0-10-|-0-6-7-0-5-0-3-4-|-0-3-4-0-6-7-0-10-|-0-6-7-0-5-0-3-4-|


  H    Q.   E   +E  E Q  +Q   E E   H    Q.   E   +E  E Q  E E E E
|-------------|-------------------|-------------|------------------|
|-------------|-------------------|-------------|------------------|
|-------------|-----------------0-|-3----3----3-|-(3)-3-3--3-5-3-0-|
|-0----0----0-|-(0)-0-0--(0)--0---|-------------|------------------|


  H    Q.   E   +E  E Q  E E E E   H    Q.   E   +E  E Q  Q  Q
|-------------|------------------|-------------|----------------|
|-------------|------------------|-------------|----------------|
|-2----2----2-|-(2)-2-2--2-2-2-3-|-------------|----------5--5--|
|-------------|------------------|-0----0----0-|-(0)-0-0--------|


  E E E E E E E  E   E E E E E E E E   E E E E E E E  E   E E E E E E E E
|------------------|-----------------|------------------|-----------------|
|------------------|-----------------|------------------|-----------------|
|------------------|-----------------|------------------|-----------------|
|-0-3-4-0-6-7-0-10-|-0-6-7-0-5-0-3-4-|-0-3-4-0-6-7-0-10-|-0-6-7-0-5-0-3-4-|


  E E E E E E E  E   E E E E E E E E   E E E E E E E  E   E E E E E E E E
|------------------|-----------------|------------------|-----------------|
|------------------|-----------------|------------------|-----------------|
|------------------|-----------------|------------------|-----------------|
|-0-3-4-0-6-7-0-10-|-0-6-7-0-5-0-3-4-|-0-3-4-0-6-7-0-10-|-0-6-7-0-5-0-3-4-|


  E E E E E E E  E   E E E E E E E E   E E E E E E E  E   E E E E E E E E
|------------------|-----------------|------------------|-----------------|
|------------------|-----------------|------------------|-----------------|
|------------------|-----------------|------------------|-----------------|
|-0-3-4-0-6-7-0-10-|-0-6-7-0-5-0-3-4-|-0-3-4-0-6-7-0-10-|-0-6-7-0-5-0-3-4-|


  E E E E E E E  E   E E E E E E E E   E E E E E E E  E   E E E E E E E E
|------------------|-----------------|------------------|-----------------|
|------------------|-----------------|------------------|-----------------|
|------------------|-----------------|------------------|-----------------|
|-0-3-4-0-6-7-0-10-|-0-6-7-0-5-0-3-4-|-0-3-4-0-6-7-0-10-|-0-6-7-0-5-0-3-4-|


  E E E E E E E  E   E E E E E E E E   E E E E E E E  E   E E E E E E E E
|------------------|-----------------|------------------|-----------------|
|------------------|-----------------|------------------|-----------------|
|------------------|-----------------|------------------|-----------------|
|-0-3-4-0-6-7-0-10-|-0-6-7-0-5-0-3-4-|-0-3-4-0-6-7-0-10-|-0-6-7-0-5-0-3-4-|


  E E E E E E E  E   E E E E E E E E   E E E E E E E  E   E E E E E E E E
|------------------|-----------------|------------------|-----------------|
|------------------|-----------------|------------------|-----------------|
|------------------|-----------------|------------------|-----------------|
|-0-3-4-0-6-7-0-10-|-0-6-7-0-5-0-3-4-|-0-3-4-0-6-7-0-10-|-0-6-7-0-5-0-3-4-|


  H    Q  E E   +E  E Q  +S  S E E E   H    Q  E E   +E  E E S S E E E E
|-------------|----------------------|-------------|---------------------|
|-------------|----------------------|-------------|---------------------|
|-------------|--------------------0-|-3----3--3-3-|-(3)-3-3-3-3-3-5-3-0-|
|-0----0--0-0-|-(0)-0-0--(0)---0-0---|-------------|---------------------|


  H    Q  E E   +E  E Q  E E E E   H    Q  E E   +E  E Q  E E Q
|-------------|------------------|-------------|-----------------|
|-------------|------------------|-------------|-----------------|
|-2----2--2-2-|-(2)-2-2--3-3-3-3-|-------------|-----------------|
|-------------|------------------|-0----0--0-0-|-(0)-0-0--0-0-0--|


  H    Q  E E   +E  E Q  +S  S E E E   H    Q  E E   +E  E E S S E E E E
|-------------|----------------------|-------------|---------------------|
|-------------|----------------------|-------------|---------------------|
|-------------|--------------------0-|-3----3--3-3-|-(3)-3-3-3-3-3-5-3-0-|
|-0----0--0-0-|-(0)-0-0--(0)---0-0---|-------------|---------------------|


  H    Q  E E   +E  E Q  E E E E   H    Q  E E   +E  E Q  E E Q
|-------------|------------------|-------------|-----------------|
|-------------|------------------|-------------|-----------------|
|-2----2--2-2-|-(2)-2-2--3-3-3-3-|-------------|-----------------|
|-------------|------------------|-0----0--0-0-|-(0)-0-0--0-0-0--|


  E E E E E E E E   E E E E E E E E   E E E E E E E E   E E E E E E E E
|-----------------|-----------------|-----------------|-----------------|
|---------3-3-3---|---------3-3-3-3-|---------3-3-3---|---------3-3-3-3-|
|-----------------|-----------------|-----------------|-----------------|
|-0-0-0-0-------0-|-0-0-0-0---------|-0-0-0-0-------0-|-0-0-0-0---------|


  E E E E E E E E   E E E E E E E E   E E E E E E E E   W
|-----------------|-----------------|-----------------|------|
|---------3-3-3---|---------2-2-2-2-|---------3-3-3---|------|
|-----------------|-----------------|-----------------|------|
|-0-0-0-0-------0-|-0-0-0-0---------|-0-0-0-0-------0-|------|


  E E Q  E E E E   +E  E Q  E E E E
|----------------|------------------|
|----------------|------------------|
|-5-5-5--5-5-5-5-|-(5)-5-5--5-5-----|
|----------------|--------------7-9-|


   Q   Q   E  E  E  E    +E   E  Q   E  E  E E
|---------------------|------------------------|
|---------------------|------------------------|
|---------------------|------------------------|
|-10--10--10-10-10-10-|-(10)-10-10--10-12-10-7-|


  Q  Q  E E E E   +E  E Q   E  E  E  E   Q  Q  E E +E  E   +E   E  E E E E Q
|----------------|------------------|-----------------|------------------|
|----------------|------------------|-----------------|------------------|
|----------------|------------------|-----------------|-------------5-3-2--|
|-9--9--9-9-9-9--|(9)-9-9--10-10-10-|-0--0--0-0-(0)-0-|-(0)-12-10-7---|


  E E Q  E E E E   +E  E Q  E E E E   Q  Q  E E +E  E   +Q   E E E E E E
|----------------|------------------|-----------------|------------------|
|----------------|------------------|-----------------|----------3-------|
|----------------|----------------2-|-3--3--3-3-(3)-3-|-(3)--3-5---5-3-0-|
|-0-0-0--0-0-0-0-|-(0)-0-0--0-0-0---|-----------------|------------------|


  Q  Q  E E E E   +E  E Q  E E E E   E E E E E E E E   +E  E E E E E E E
|---------------|------------------|-----------------|-------------------|
|---------------|------------------|-----------------|-----3-3-3-5-5-7-7-|
|-2--2--2-2-2-2-|-(2)-2-2--3-3-3-3-|-5-5-5-5---------|-------------------|
|---------------|------------------|---------0-0-0-0-|-(0)---------------|


  E E E E E E E  E   E E E E E E E E   E E E E E E E  E   E E E E E E E E
|------------------|-----------------|------------------|-----------------|
|------------------|-----------------|------------------|-----------------|
|------------------|-----------------|------------------|-----------------|
|-0-3-4-0-6-7-0-10-|-0-6-7-0-5-0-3-4-|-0-3-4-0-6-7-0-10-|-0-6-7-0-5-0-3-4-|


  E E E E E E E  E   E E E E E E E E   E E E E E E E  E   E E E E E E E E
|------------------|-----------------|------------------|-----------------|
|------------------|-----------------|------------------|-----------------|
|------------------|-----------------|------------------|-----------------|
|-0-3-4-0-6-7-0-10-|-0-6-7-0-5-0-3-4-|-0-3-4-0-6-7-0-10-|-0-6-7-0-5-0-3-4-|


  H    Q  E E   +E  E Q  +S  S E E E   H    Q  E E   +E  E E S S E E E E
|-------------|----------------------|-------------|---------------------|
|-------------|----------------------|-------------|---------------------|
|-------------|--------------------0-|-3----3--3-3-|-(3)-3-3-3-3-3-5-3-0-|
|-0----0--0-0-|-(0)-0-0--(0)---0-0---|-------------|---------------------|


  H    Q  E E   +E  E E S S E E E E   H    Q  E E   +E  E Q  E E Q
|-------------|---------------------|-------------|------------------|
|-------------|---------------------|-------------|------------------|
|-2----2--2-2-|-(2)-2-2-2-2-3-3-3-3-|-------------|------------------|
|-------------|---------------------|-0----0--0-0-|-(0)-0-0--0-0-0---|


  H    Q  E E   +E  E Q  +S  S E E E   H    Q  E E   +E  E E S S E E E E
|-------------|----------------------|-------------|---------------------|
|-------------|----------------------|-------------|---------------------|
|-------------|--------------------0-|-3----3--3-3-|-(3)-3-3-3-3-3-5-3-0-|
|-0----0--0-0-|-(0)-0-0--(0)---0-0---|-------------|---------------------|


  H    Q  E E   +E  E E S S E E E E   H    Q  E E   +E  E Q  E E Q
|-------------|---------------------|-------------|------------------|
|-------------|---------------------|-------------|------------------|
|-2----2--2-2-|-(2)-2-2-2-2-3-3-3-3-|-------------|------------------|
|-------------|---------------------|-0----0--0-0-|-(0)-0-0--0-0-0---|


  E E E E E E E  E   E E E E E E E E   E E E E E E E  E   E E E E E E E E
|------------------|-----------------|------------------|-----------------|
|------------------|-----------------|------------------|-----------------|
|------------------|-----------------|------------------|-----------------|
|-0-3-4-0-6-7-0-10-|-0-6-7-0-5-0-3-4-|-0-3-4-0-6-7-0-10-|-0-6-7-0-5-0-3-4-|


  E E E E E E E  E   E E E E E E E E   E E E E E E E E   E E E E E E E E
|------------------|-----------------|-----------------|-----------------|
|------------------|-----------------|-----------------|-----------------|
|------------------|-----------------|---3-5---2-3---0-|-----------------|
|-0-3-4-0-6-7-0-10-|-0-6-7-0-5-0-3-4-|-0-----0-----0---|-0-6-7-0-5-0-3-4-|


  e. S Q  H
|--------------*|
|--------------*|
|--------------*|
|-0------------*|




--------------------------------------------------------------------------------


Duration Legend
---------------
W - whole; H - half; Q - quarter; E - 8th; S - 16th; T - 32nd; X - 64th; a - acciaccatura
+ - note tied to previous; . - note dotted; .. - note double dotted
Uncapitalized letters represent notes that are staccato (1/2 duration)
Irregular groupings are notated above the duration line
Duration letters will always appear directly above the note/fret number it represents the
duration for.  Duration letters with no fret number below them represent rests.  Multi-
bar rests are notated in the form Wxn, where n is the number of bars to rest for.  Low
melody durations appear below the staff

Tablature Legend
----------------
 h   - hammer-on
 p   - pull-off
 b   - bend
 pb  - pre-bend
 r   - bend release (if no number after the r, then release immediately)
 /\  - slide into or out of (from/to "nowhere")
 s   - legato slide
 S   - shift slide
 - natural harmonic
[n]  - artificial harmonic
n(n) - tapped harmonic
 ~   - vibrato
 tr  - trill
 T   - tap
 TP  - trem. picking
 PM  - palm muting
\n/  - tremolo bar dip; n = amount to dip
 \n  - tremolo bar down
 n/  - tremolo bar up
/n\  - tremolo bar inverted dip
 =   - hold bend; also acts as connecting device for hammers/pulls
 <> - volume swell (louder/softer)
 x   - on rhythm slash represents muted slash
 o   - on rhythm slash represents single note slash

Misc Legend
-----------
 |  - bar
||  - double bar
||o - repeat start
o|| - repeat end
*|  - double bar (ending)
 :  - bar (freetime)
 $  - Segno
 &  - Coda
Tempo markers -  = BPM(8/16=s8/s16), where s8 = swing 8ths, s16 = swing 16ths



--------------------------------------------------------------------------------





Comments


Popular Velvet Revolver tabs & chords
Dirty Little Thing 5 Bass Tabs
Do It For The Kids 1 Bass Tabs
Loving The Alien Bass Tabs
Messages Chords
Fall To Pieces 1 Tabs
Gravedancer Intro Tabs
Money (Intro Ver 2) Tabs
Set Me Free 2 Tabs
She Mine 1 Tabs
Loving The Alien Ukulele


Song lyrics



↑ Back to top | Tablatures and chords are parodies/interpretations of the original songs. You may use it for private study, scholarship, research or language learning purposes only
© 2014 AZChords.com Contact us | Privacy policy | DMCA | Add/correct tabs | Request tabs | Top 50 tabs