» » »

Velvet Revolver, Slither Tabs (ver.2)

Artists:  A B C D E F G H I J K L M N O P Q R S T U V W X Y Z # 

Slither Tabs (ver.2)

Velvet Revolver Tabs
Rating:
0/5 (0 votes)
Slither lessons Tabs too difficult? Try these video lessons and learn fast
                Slither- Velvet Revolver
Almost all of it accredited to Nero Hans

Intro both guitars:
e|----------------------------|
B|----------------------------|
G|-7-------5-------4-------2--|
D|-7-------5-------4-------0--|
A|-5-------3-------2-------0--|
E|----------------------------|

Intro part 2 guitar 2
e|--------------------------------------------------------------------|
B|--------------------------------------------------------------------|
G|-------------5------------------------------------------------------|
D|-0-3-4-6-7-0-5-x-6-7-0-5-3-4----------------------------------------|
A|-0-3-4-6-7-0---x-6-7-0-5-3-4----------------------------------------|
E|--------------------------------------------------------------------|

Guitar 1 that comes in after guitar 2 plays verse 3x
e|--------------8-----------------------------------------------------|
B|---6-7---9-10---9-10---8---6(v)~~~~~--------------------------------|
G|-7-----7-------------7---7------------------------------------------|
D|--------------------------------------------------------------------|
A|--------------------------------------------------------------------|
E|--------------------------------------------------------------------|

Verse both guitars: (im pretty sure that they just strum this chord palm muted
and slide down to the second one every few times)
e|------------------|
B|------------------|
G|------------------|
D|--7------5(slide)-|
A|--7------5--------|
E|--5------3--------|

Chorus guitar 1
e|--------------------------------------------------------------------|
B|--------------------------------------------------------------------|
G|-------------5------------------------------------------------------|
D|-0-3-4-6-7-0---6-7-0-5-3-4------------------------------------------|
A|--------------------------------------------------------------------|
E|--------------------------------------------------------------------|

Chorus guitar 2
e|--------------------|
B|--------------------|
G|--7----5----4----5--|
D|--7----5----4----5--|
A|--5----3----2----3--|
E|--------------------|

Chorus part 2 guitar 1:
E|-8-10-x-7-8---------------------------------------------------------|
B|------------x-10-x-9-10---8---6-7-----------------------------------|
G|------------------------7---7-----7---------------------------------|
D|--------------------------------------------------------------------|
A|--------------------------------------------------------------------|
E|--------------------------------------------------------------------|

Chorus part 2 guitar 2:
E|--------------------------------------------------------------------|
B|--------------------------------------------------------------------|
G|-5-7-x-4-5-x--------------------------------------------------------|
D|-5-7-x-4-5-x-7-0-6-7-0-5-0-3-4-0------------------------------------|
A|-----------x-7-0-6-7-0-5-0-3-4-0------------------------------------|
E|--------------------------------------------------------------------|

Repeat verse, chorus and chorus part 2

Solo:
E|-----------10--------------10--------------10--------------10-------|
B|-13(FB)(v)----10-13(FB)(v)----10-13(FB)(v)----10-13(FB)(v)----10----|
G|--------------------------------------------------------------------|
D|--------------------------------------------------------------------|
A|--------------------------------------------------------------------|
E|--------------------------------------------------------------------|

E|--------------------------------------------------------------------|
B|-15(FB)(v)----15(FB)(v)-(12)-15(HB)-15(HB)-15(HB)-15(FB15)----------|
G|-----------14-------------------------------------------------------|
D|--------------------------------------------------------------------|
A|--------------------------------------------------------------------|
E|--------------------------------------------------------------------|

E|---------------------15(HB15)-15(HB15)-15(HB)-15-14-15-14(HB)14-12-14-12-|
B|-13----15(HB)(v)-13------------------------------------------------------|
G|----14-------------------------------------------------------------------|
D|-------------------------------------------------------------------------|
A|-------------------------------------------------------------------------|
E|-------------------------------------------------------------------------|

E|----12--------------------------------------------------------------|
B|-15----13-15-12-13----12--------13----------------------------------|
G|-------------------14----12(HB)----12(REL)-10----12-10-------12(HB)-|
D|----------------------------------------------12-------12-10--------|
A|--------------------------------------------------------------------|
E|--------------------------------------------------------------------|

E|-10-----------10----------------------------------------------------|
B|----10-13(HB)----10---------------10-13-----------------------------|
G|--------------------12(HB12HB)(v)-----------------------------------|
D|--------------------------------------------------------------------|
A|--------------------------------------------------------------------|
E|--------------------------------------------------------------------|

E|-------------------------------------------------------------------------|
B|--------10-13--------10-13--------10-13---------------10-13--------10-13-|
G|-12(HB)-------12(HB)-------12(HB)-------12(HB)-12(HB)-------12(HB)-------|
D|-------------------------------------------------------------------------|
A|-------------------------------------------------------------------------|
E|-------------------------------------------------------------------------|

E|--------10--------------10--------|
B|-13(HB)----13-10-----------13-10--|
G|-----------------12(HB)-----------|
D|----------------------------------|
A|----------------------------------|
E|----------------------------------|

E|--------10--------------10--------|
B|-13(HB)----13-10-----------13-10--|
G|-----------------12(HB)-----------|
D|----------------------------------|
A|----------------------------------|
E|----------------------------------|

E|--------10--------------10--------|
B|-13(HB)----13-10-----------13-10--|
G|-----------------12(HB)-----------|
D|----------------------------------|
A|----------------------------------|
E|----------------------------------|

E|--------10--------------10--------13(HB)-13(HB)-13(v)-10--------------|
B|-13(HB)----13-10-----------13-10-------------------------13-10-13(HB)-|
G|-----------------12(HB)-----------------------------------------------|
D|----------------------------------------------------------------------|
A|----------------------------------------------------------------------|
E|----------------------------------------------------------------------|

E|-10------------------------------------------------------------------|
B|----13-10------------------------------------------------------------|
G|----------12(HB)10----12-10------------------------------------------|
D|-------------------12-------12---------------10/12~~~~~~~~~~~~-------|
A|-------------------------------12-11-10-8----------------------------|
E|------------------------------------------10-------------------------|

Repeat chorus both guitars
Repeat chorus part 2 both guitars

SOLOS WHILE SINGING
E|-12(FB)-10(v)-10-----------10---------------------------------------|
B|-----------------10-13(FB)----10-------------------13(FB)(v)~~~~~---|
G|---------------------------------12(HB12)-10-12-10------------------|
D|--------------------------------------------------------------------|
A|--------------------------------------------------------------------|
E|--------------------------------------------------------------------|

E|----18(FB)-18-17-15-------15----------------------------------------|
B|-15-----------------18-15----18-15----------------------------------|
G|-----------------------------------18-17-15-------17-15-------------|
D|--------------------------------------------17-15-------17-15-------|
A|--------------------------------------------------------------------|
E|--------------------------------------------------------------------|

Enjoy
            

comments powered by Disqus
↑ Back to top | Velvet Revolver Tabs for Slither. Lyrics for acoustic guitar and electric guitar. Tablatures and chords are parodies/interpretations of the original songs. You may use it for private study, scholarship, research or language learning purposes only