>
 >
She Builds Quick Machines 1

She Builds Quick Machines 1 Guitar Tabs

Velvet Revolver - She Builds Quick Machines 1 chords, tabs, tablatures, lyrics

Guitar lessons | Add/correct | Request | Top 50 tabs Artists:  A B C D E F G H I J K L M N O P Q R S T U V W X Y Z 0-9

She Builds Quick Machines 1 Guitar Tabs – Velvet Revolver

CD, Sheet music, Poster

Do you like She Builds Quick Machines 1? Share with your friends now
Bass TabsBass Tabs v2TabsTabs v2Tabs v3
BAND:		VELVET REVOLVER
ALBUM:	LIBERTAD (2007)
TUNING:	DROP D (DADGBE)


SLASH’S PART IS TOP, DAVE’S PART IS BOTTOM. ENJOY!


INTRO

(LIGHT DISTORTION)
|------------------------------------------|
|o----------------------------------------o|
|------------------------------------------|
|------------------------------------------|
|o-10-12-0-10-12-0-10-12-9-12-0-9-3p0-3p0-o|
|--10-12-0-10-12-0-10-12-9-12-0-9-3p0-3p0--|
|(DISTORTION)
|------------------------------------------|
|o----------------------------------------o|
|------------------------------------------|
|------------------------------------------|
|o----------------------------------------o|
|------------------------------------------|

|------------------------------------------||
|o----------------------------------------o||
|------------------------------------------||
|------------------------------------------||
|o-10-12-0-10-12-0-10-12-9-12-0-9-3p0-3p0-o||
|--10-12-0-10-12-0-10-12-9-12-0-9-3p0-3p0--||
|
|    ~~~~~~~~~~~~~~~~~~~~~~~~~~~~~~~~~~~~~
|------------------------------------------||
|o----------------------------------------o||
|--10--------------------------------------||
|------------------------------------------||
|o----------------------------------------o||
|------------------------------------------||

MAIN RIFF

(DISTORTION)
|------------------------------------------||
|o----------------------------------------o||
|------------------------------------------||
|------------------------------------------|| x4
|o-10-12-0-10-12-0-10-12-9-12-0-9-3p0-3p0-o||
|--10-12-0-10-12-0-10-12-9-12-0-9-3p0-3p0--||
|(DISTORTION)
|------------------------------------------||
|o----------------------------------------o||
|------------------------------------------||
|------------------------------------------|| x4
|o-10-12-0-10-12-0-10-12-9-12-0-9-3p0-3p0-o||
|--10-12-0-10-12-0-10-12-9-12-0-9-3p0-3p0--||


VERSE 1

(DISTORTION)
|---------------------------------|-----------------------------------|
|---------------------------------|-----------------------------------|
|---------------------------------|-----------------------------------|
|-------------------------3p0-3p0-|-------------------------3p0-3p0---|
|-3h5---3-5---3h5-2h5---2---------|-3-5---3-5---3-5-2-5---2-----------|
|---------------------------------|-----------------------------------|
|                PM-|                PM-------------------------------|
|(DISTORTION)
|				    ~~~~~~~					  ~~~~~~~
|---------------------------------|---------------------------------|
|---------------------------------|---------------------------------|
|----------------10-------12------|----------------10-------12------|
|--------------------10-9---------|--------------------10-9---------|
|---------------------------------|---------------------------------|
|---------------------------------|---------------------------------|

|-----------------------------------|-------------------------------------|
|-----------------------------------|-------------------------------------|
|-----------------------------------|-------------------------------------|
|---------------------------3p0-3p0-|---------------------------3p0-3p0---|
|-3h5-x-x-3-5---3h5-2h5---2---------|-3-5-x-x-3h5---3h5-2-5---2-----------|
|-----------------------------------|-------------------------------------|
|                          PM---|          PM-----------------------------|
|				      ~~~~~~~						  ~~
|-----------------------------------|--------------------------------------|
|-----------------------------------|--------------------------------------|
|------------------10-------12------|------------------10------------------|
|----------------------10-9---------|----------------------10-9-10-9-10/12-|
|-----------------------------------|--------------------------------------|
|-----------------------------------|--------------------------------------|

|-----------------------------------|-----------------------------------|
|-----------------------------------|-----------------------------------|
|-----------------------------------|-----------------------------------|
|---------------------------3p0-3p0-|---------------------------3p0-3p0-|
|-3h5-x-x-3-5---3h5-2h5---2---------|-3h5-x-x-3h5---3h5-2h5---2---------|
|-----------------------------------|-----------------------------------|
|
|~~~~~			      ~~~~~~~					~~~~~~~
|-----------------------------------|-----------------------------------|
|-----------------------------------|-----------------------------------|
|------------------10-------12------|------------------10-------12------|
|----------------------10-9---------|----------------------10-9---------|
|-----------------------------------|-----------------------------------|
|-----------------------------------|-----------------------------------|

|-----------------------------------|-----------------------------------||
|-----------------------------------|-----------------------------------||
|-----------------------------------|-----------------------------------||
|---------------------------3p0-3p0-|---------------------------3p0-3p0-||
|-3h5-x-x-3-5---3h5-2h5---2---------|-3-5-x-x-3-5---3-5-2h5---2---------||
|-----------------------------------|-----------------------------------||
|			      	                    PM---|
|				      ~~~~~~~						~~~
|-----------------------------------|------------------------------------||
|-----------------------------------|------------------------------------||
|------------------10-------12------|------------------10-------10---/12-||
|----------------------10-9---------|----------------------10-9----------||
|-----------------------------------|------------------------------------||
|-----------------------------------|------------------------------------||


PRE-CHORUS 1

(DISTORTION)
|---------------------------------|---------------------------------|
|---------------------------------|---------------------------------|
|-------------5-------------------|-------------5-------------------|
|-7-----5-----5-------------------|-7-----5-----5---------------0---|
|-7-----5-----3---------------5---|-7-----5-----3---------------0---|
|-7-----5-----------3-5-3-5-7-----|-7-----5-----------3-5-3-5-7-0---|
|(CLEAN W/ CHORUS)
|---------------------------------|---------------------------------|
|---------------------------------|---------------------------------|
|-----0---------------------------|-----0---------------------------|
|---0-----------------------------|---0-----------------------------|
|-3-------------------------------|-3-------------------------------|
|---------------------------------|---------------------------------|

|---------------------------------|---------------------------------||
|---------------------------------|---------------------------------||
|-------------5-------------------|---------------------------------||
|-7-----5-----5-------------------|-7-----5-----3-----5-------------||
|-7-----5-----3---------------5---|-7-----5-----3-----5-------------||
|-7-----5-----------3-5-3-5-7-----|-7-----5-----3-----5-------------||
|
|---------------------------------|---------------------------------||
|---------------------------------|---------------------------------||
|-----0---------------------------|-----0---------------------------||
|---0-----------------------------|---0-----------------------------||
|-3-------------------------------|-3-------------------------------||
|---------------------------------|---------------------------------||


CHORUS 1

(DISTORTION)
|--------10-------10------------10------------||
|o-------10-------10------------10-----------o||
|---------------------------------------------||
|---------------------------------------------|| x4
|o-10-12----10-12----10-12-9-12----0-3p0-3p0-o||
|--10-12----10-12----10-12-9-12----0-3p0-3p0--||
|(DISTORTION)
|---------------------------------------------||
|o-------------------------------------------o||
|---------------------------------------------||
|---------------------------------------------|| x4
|o-10-12-0--10-12-0--10-12-9-12-0--9-3p0-3p0-o||
|--10-12-0--10-12-0--10-12-9-12-0--9-3p0-3p0--||
VERSE 2

(DISTORTION)
|-----------------------------------|-------------------------------------|
|-----------------------------------|-------------------------------------|
|-----------------------------------|-------------------------------------|
|---------------------------3p0-3p0-|---------------------------3p0-3p0---|
|-3h5-x-x-3h5---3h5-2h5---2---------|-3-5-x-x-3h5---3h5-2h5---2-----------|
|-----------------------------------|-------------------------------------|
|            PM-----------------------------------------------------------|
|(DISTORTION)
|			   	      ~~~~~~~					~~~~~~~
|-----------------------------------|-----------------------------------|
|-----------------------------------|-----------------------------------|
|------------------10-------12------|------------------10-------12------|
|----------------------10-9---------|----------------------10-9---------|
|-----------------------------------|-----------------------------------|
|-----------------------------------|-----------------------------------|

|-----------------------------------|-------------------------------------------|
|-----------------------------------|-------------------------------------------|
|-----------------------------------|-------------------------------------------|
|---------------------------3p0-3p0-|---------------------------3^(5)---(3)p0---|
|-3-5-x-x-3-5---3h5-2h5---2---------|-3-5-x-x-3-5---3h5-2h5---2-----------------|
|-----------------------------------|-------------------------------------------|
PM---|                        PM------------------------------------------------|
|				      ~~~~~~~						  ~~
|-----------------------------------|--------------------------------------|
|-----------------------------------|--------------------------------------|
|------------------10-------12------|------------------10------------------|
|----------------------10-9---------|----------------------10-9-10-9-10/12-|
|-----------------------------------|--------------------------------------|
|-----------------------------------|--------------------------------------|

|-----------------------------------|-------------------------------------------|
|-----------------------------------|-------------------------------------------|
|-----------------------------------|-------------------------------------------|
|---------------------------3p0-3p0-|---------------------------3^(5)---(3)p0---|
|-3h5-x-x-3-5---3h5-2h5---2---------|-3-5-x-x-3-5---3h5-2h5---2-----------------|
|-----------------------------------|-------------------------------------------|
|       PM---|                PM------------------------------------------------|
|~~~~~			      ~~~~~~~					~~~~~~~
|-----------------------------------|--------------------------------------|
|-----------------------------------|--------------------------------------|
|------------------10-------12------|------------------10-------12---------|
|----------------------10-9---------|----------------------10-9------------|
|-----------------------------------|--------------------------------------|
|-----------------------------------|--------------------------------------|
|-----------------------------------|--------------------------------------|
|-----------------------------------|--------------------------------------|
|-----------------------------------|---------------------------0----------|
|---------------------------3p0-3p0-|-------------------------------3p0----|
|-3-5-x-x-3-5---3h5-2h5---2---------|-3-5-x-x-3-5---3-5-2h5---2------------|
|-----------------------------------|--------------------------------------|
|			      	              PM---|
|				      ~~~~~~~						~~~
|-----------------------------------|------------------------------------||
|-----------------------------------|------------------------------------||
|------------------10-------12------|------------------10-------10---/12-||
|----------------------10-9---------|----------------------10-9----------||
|-----------------------------------|------------------------------------||
|-----------------------------------|------------------------------------||


PRE-CHORUS 2

(DISTORTION)
|---------------------------------|---------------------------------|
|---------------------------------|---------------------------------|
|-------------5-------------------|-------------5-------------------|
|-7-----5-----5-------------------|-7-----5-----5---------------0---|
|-7-----5-----3---------------5---|-7-----5-----3---------------0---|
|-7-----5-----------3-5-3-5-7-----|-7-----5-----------3-5-3-5-7-0---|
|(CLEAN W/ CHORUS)
|---------------------------------|---------------------------------|
|---------------------------------|---------------------------------|
|-----0---------------------------|-----0---------------------------|
|---0-----------------------------|---0-----------------------------|
|-3-------------------------------|-3-------------------------------|
|---------------------------------|---------------------------------|

|---------------------------------|---------------------------------||
|---------------------------------|---------------------------------||
|-------------5-------------------|---------------------------------||
|-7-----5-----5-------------------|-7-----5-----3-----5-------------||
|-7-----5-----3---------------5---|-7-----5-----3-----5-------------||
|-7-----5-----------3-5-3-5-7-----|-7-----5-----3-----5-------------||
|
|---------------------------------|---------------------------------||
|---------------------------------|---------------------------------||
|-----0---------------------------|-----0---------------------------||
|---0-----------------------------|---0-----------------------------||
|-3-------------------------------|-3-------------------------------||
|---------------------------------|---------------------------------||

CHORUS 2

(DISTORTION)
|--------10-------10------------10------------|
|o-------10-------10------------10-----------o|
|---------------------------------------------|
|---------------------------------------------| x3
|o-10-12----10-12----10-12-9-12----0-3p0-3p0-o|
|--10-12----10-12----10-12-9-12----0-3p0-3p0--|
|(DISTORTION)
|---------------------------------------------|
|o-------------------------------------------o|
|---------------------------------------------|
|---------------------------------------------| x3
|o-10-12-0--10-12-0--10-12-9-12-0--9-3p0-3p0-o|
|--10-12-0--10-12-0--10-12-9-12-0--9-3p0-3p0--|

|-------10-------10------------10-----------||
|-------10-------10------------10-----------||
|-------------------------------------------||
|-----------------------------------3--3----||
|-10-12----10-12----10-12-9-12----0-3--3----||
|-10-12----10-12----10-12-9-12----0-3--3----||
|
|-------------------------------------------||
|-------------------------------------------||
|-------------------------------------------||
|-----------------------------------3--3----||
|-10-12-0--10-12-0--10-12-9-12-0--9-3--3----||
|-10-12-0--10-12-0--10-12-9-12-0--9-3--3----||


BRIDGE

(DISTORTION)
|---------------------------------|---------------------------------|
|---------------------------------|---------------------------------|
|---------------------------------|---------------------------------|
|-0-------------------------------|---------------------------------|
|-0-------------------------------|---------------------------------|
|-0-------------------------------|---------------------------------|
|(DISTORTION)
|---------------------------------|---------------------------------|
|---------------------------------|---------------------------------|
|---------------------------------|---------------------------------|
|-0-------------------------------|---------------------------------|
|-0-------------------------------|---------------------------------|
|-0-------------------------------|---------------------------------|
(CLEAN)
|-----------------------------------|---------------------------------|
|-----------------------------------|-------------------------7---7---|
|-----------------------------------|-------------------------7---7---|
|-----------------------------------|---------------------------------|
|-----------------------------------|---------------------------------|
|-----------------------------------|---------------------------------|
|(CLEAN/LIGHT DISTORTION)
|-----------------------------------|---------------------------------|
|-----------------------------------|---------------------------------|
|-5/7---------------------12\11-9---|-9/11----------------------------|
|-x------------------------x----x---|-x-------------------------------|
|-3/5---------------------10\9--7---|-7/9-----------------------------|
|-----------------------------------|---------------------------------|

|-----------------------------------|---------------------------------|
|-7h8-----------------------8---8---|-7-----------------------7---7---|
|-7-------------------------7---7---|-7-----------------------7---7---|
|-----------------------------------|---------------------------------|
|-----------------------------------|---------------------------------|
|-----------------------------------|---------------------------------|
|
|-----------------------------------|---------------------------------|
|-----------------------------------|---------------------------------|
|-5/7---------------------12\11-9---|-9/11----------------------------|
|-x------------------------x----x---|-x-------------------------------|
|-3/5---------------------10\9--7---|-7/9-----------------------------|
|-----------------------------------|---------------------------------|

|-----------------------------------|------------------------------------|
|-7h8-----------------------8---8---|-7--------------------------7---7---|
|-7-------------------------7---7---|-7--------------------------7---7---|
|-----------------------------------|------------------------------------|
|-----------------------------------|------------------------------------|
|-----------------------------------|------------------------------------|
|
|-----------------------------------|------------------------------------|
|-----------------------------------|------------------------------------|
|-5/7---------------------12\11-9---|-9/11--------------------11/12\11---|
|-x------------------------x----x---|-x------------------------x---------|
|-3/5---------------------10\9--7---|-7/9----------------------9/10\9----|
|-----------------------------------|------------------------------------|

|-----------------------------------|---------------------------------|
|-7h8-----------------------8---8---|-7-----------------------7---7---|
|-7-------------------------7---7---|-7-----------------------7---7---|
|-----------------------------------|---------------------------------|
|-----------------------------------|---------------------------------|
|-----------------------------------|---------------------------------|
|
|-----------------------------------|---------------------------------|
|-----------------------------------|---------------------------------|
|-12/14-----------------14/17----17/|-19------------------------------|
|--x---------------------x--x-----x-|--x------------------------------|
|-10/12-----------------12/15----15/|-17------------------------------|
|-----------------------------------|---------------------------------|

|---------------------------------|
|-5-------------------------------|
|-5---------5-------7-------------|
|-----------5-------7-------------|
|---------------------------------|
|---------------------------------|
|
|---------------------------------|
|---------------------------------|
|-5/7-------5-------7-------------|
|-x---------x-------x-------------|
|-3/5-------3-------5-------------|
|-------------------0-------------|

|-----------------------------------------------------------------------------|
|--8----------8--------7------------------------------------------------------|
|--9----------9--------7------------------------------------------------------|
|-10---------10---------------------------------------------------------------|
|-----------------------------------------------------------------------------|
|-----------------------------------------------------------------------------|
|				     (DISTORTION)						   ~~~
|-----------------------------------------------------------------------------|
|-----------------------------15-15-15-15^-15^(16)-(16)-(16)-(17)-(17)-(17)---|
|-7/14-------17-------17/19---------------------------------------------------|
|-x-----------x--------x------------------------------------------------------|
|-5/12-------15-------15/17---------------------------------------------------|
|-----------------------------------------------------------------------------|


(DISTORTION)
|----------------------------------------------|----------------------------------------------|
|----------------------------------------------|----------------------------------------------|
|-10-10-10-10-10---10-10-10-10-10---10-10-10---|-12-12-12-12-12---12-12-12-12-12---12-12-12---|
|-10-10-10-10-10---10-10-10-10-10---10-10-10---|-12-12-12-12-12---12-12-12-12-12---12-12-12---|
|--8--8--8--8--8----8--8--8--8--8----8--8--8---|-10-10-10-10-10---10-10-10-10-10---10-10-10---|
|----------------------------------------------|----------------------------------------------|
|
|----------------------------------------------|----------------------------------------------|
|----------------------------------------------|----------------------------------------------|
|----------------------------------------------|----------------------------------------------|
|-3--3--3--3--3----3--3--3--3--3----3--3--3----|-5--5--5--5--5----5--5--5--5--5----5--5--5----|
|-3--3--3--3--3----3--3--3--3--3----3--3--3----|-5--5--5--5--5----5--5--5--5--5----5--5--5----|
|-3--3--3--3--3----3--3--3--3--3----3--3--3----|-5--5--5--5--5----5--5--5--5--5----5--5--5----|

|----------------------------------------------|--------------------------/8-7----------------||
|----------------------------------------------|-------------------------------8--------------||
|-10-10-10-10-10---10-10-10-10-10---10-10-10---|-12-12-12-12-12---12-12----------7-8^(10)-8-6-||
|-10-10-10-10-10---10-10-10-10-10---10-10-10---|-12-12-12-12-12---12-12-----------------------||
|--8--8--8--8--8----8--8--8--8--8----8--8--8---|-10-10-10-10-10---10-10-----------------------||
|----------------------------------------------|----------------------------------------------||
|
|----------------------------------------------|----------------------------------------------||
|----------------------------------------------|----------------------------------------------||
|-10-10-10-10-10---10-10-10-10-10---10-10-10---|-12-12-12-12-12---12-12-12-12-12---12-12-12---||
|-10-10-10-10-10---10-10-10-10-10---10-10-10---|-12-12-12-12-12---12-12-12-12-12---12-12-12---||
|--8--8--8--8--8----8--8--8--8--8----8--8--8---|-10-10-10-10-10---10-10-10-10-10---10-10-10---||
|----------------------------------------------|----------------------------------------------||


SOLO

(DISTORTION)
|--------------------------------------------------------------------------------------|
|-8^(10)(8)p6-----8^(10)(8)p6-----8^(10)(8)p6-----8^(10)(8)p6-----8^(10)(8)p6-8^(10)---|
|-------------7p5-------------7p5-------------7p5-------------7p5----------------------|
|--------------------------------------------------------------------------------------|
|--------------------------------------------------------------------------------------|
|--------------------------------------------------------------------------------------|
|                                                    HB--------------------------------|
|--------------------------------------------------------------------------------------|
|--------------------------------------------------------------------------------------|
|--------------------------------------------------------------------------------------|
|--------------------------------------------------------------------------------------|
|-0---10----12---0---10----12---0---10----12---0---10----12---0---10---9---------------|
|-0---10----12---0---10----12---0---10----12---0---10----12---0---10---9---------------|


|-8------------------8-8----------------------------------------------------------|
|---(10)(8)p6-8^(10)-----(10)(8)p6-----8p6-----6^---------------------------------|
|----------------------------------7p5-----7p5------7p5-7p5-----------------------|
|-----------------------------------------------------------7p5-7p5\3---5p3-------|
|---------------------------------------------------------------------5-----5p3---|
|---------------------------------------------------------------------------------|
|------|    HB---------------|                          PM------------------------|
|---------------------------------------------------------------------------------|
|---------------------------------------------------------------------------------|
|---------------------------------------------------------------------------------|
|---------------------------------------------------------------------------------|
|-0---10----12---0---10----12---0---10----12---0---10----12---0---10---9----------|
|-0---10----12---0---10----12---0---10----12---0---10----12---0---10---9----------|

									     ~~~
|-----------------------------------------------------------------|
|-----------------------------------------------------------------|
|-----------------------------------------------------------------|
|-3p0-5p0-3p0-0-0-3p0-5p0-3p0-0-0-3p0-5p0-3p0-0-0-3^(5)---3---0---|
|-----------------------------------------------------------------|
|-----------------------------------------------------------------|
|           PM---|        PM---|          PM----------------------|
|-----------------------------------------------------------------|
|-----------------------------------------------------------------|
|-----------------------------------------------------------------|
|-3---3---3---3---3-----3---3---3---3---3-----3---3---3-----------|
|-3---3---3---3---3-----3---3---3---3---3-----3---3---3-----------|
|-3---3---3---3---3-----3---3---3---3---3-----3---3---3-----------|

   ~~		   ~~
|-------------------------------------------------------|
|-------------------------------------------------------|
|-------------------------------------------7-----10-12-|
|-5---5p3-----5---5p3-----5/7---5h7/9---7/9-----9-------|
|---------5p3---------5p3-------------------------------|
|-------------------------------------------------------|
|
|-------------------------------------------------------|
|-------------------------------------------------------|
|-------------------------------------------------------|
|-5--5--5--5--5------5--5--5--5--5------5--5--5---------|
|-5--5--5--5--5------5--5--5--5--5------5--5--5---------|
|-5--5--5--5--5------5--5--5--5--5------5--5--5---------|


|--------------------------------10------------10----------------------------------|
|-10--------------------------------10-13^(15)----13p10----------------------------|
|-10--------------------12^(14)-------------------------12^(13)(12)p10-12p10-------|
|------12p10----10-12--------------------------------------------------------12p10-|
|------------12--------------------------------------------------------------------|
|----------------------------------------------------------------------------------|
|
|----------------------------------------------------------------------------------|
|----------------------------------------------------------------------------------|
|----------------------------------------------------------------------------------|
|----------------------------------------------------------------------------------|
|-0---10----12---0---10----12---0---10----12---0---10----12---0---10---9-----------|
|-0---10----12---0---10----12---0---10----12---0---10----12---0---10---9-----------|

		  RP														  ~~
|-13^(15)^---(14)---10----12----10h12p10----10---------10------------------10-------------------------------|
|----------------------13----13----------13----13^(15)----13p10---------10----13p10---------------------13--|
|---------------------------------------------------------------12^(14)-------------12^(14)(12)-10--/14-----|
|-----------------------------------------------------------------------------------------------------------|
|-----------------------------------------------------------------------------------------------------------|
|-----------------------------------------------------------------------------------------------------------|
HB----------------------------------------------------------------------------------------------------------|
|-----------------------------------------------------------------------------------------------------------|
|-----------------------------------------------------------------------------------------------------------|
|-----------------------------------------------------------------------------------------------------------|
|-----------------------------------------------------------------------------------------------------------|
|-0-----10-----12-----0-----10-----12-----0-----10-----12-----0-----10-----12-----0-----10-----9------------|
|-0-----10-----12-----0-----10-----12-----0-----10-----12-----0-----10-----12-----0-----10-----9------------|

	         RP			    	    ~~~
|-15^(17)-----(17)(15)p13-15-15^-13------------------|
|-------------------------------------15--------14---|
|-------------------------------------------/16------|
|----------------------------------------------------|
|----------------------------------------------------|
|----------------------------------------------------|
HB---------------------------------------------------|
|----------------------------------------------------|
|----------------------------------------------------|
|----------------------------------------------------|
|-3--3--3--3--3-----3--3--3--3--3-----3--3--3--------|
|-3--3--3--3--3-----3--3--3--3--3-----3--3--3--------|
|-3--3--3--3--3-----3--3--3--3--3-----3--3--3--------|


	   ~~~								RP
|-17^(20)-------17-16-15----------------------17------------------|
|------------------------17-17^(18)(17)p15-------17^(19)---(19)---|
|------------------------------------------16---------------------|
|-----------------------------------------------------------------|
|-----------------------------------------------------------------|
|-----------------------------------------------------------------|
|                                 HB------------------------------|
|-----------------------------------------------------------------|
|-----------------------------------------------------------------|
|-----------------------------------------------------------------|
|-5---5---5---5---5-----5---5---5---5---5-----5----3--------------|
|-5---5---5---5---5-----5---5---5---5---5-----5----3--------------|
|-5---5---5---5---5-----5---5---5---5---5-----5----3--------------|


PRE-CHORUS 3

(DISTORTION)
		~~~
|---------------------------------|---------------------------------|
|-(17)-15h17----------------------|---------------------------------|
|-------------5-------------------|-------------5-------------------|
|-7-----5-----5-------------------|-7-----5-----5---------------0---|
|-7-----5-----3---------------5---|-7-----5-----3---------------0---|
|-7-----5-----------3-5-3-5-7-----|-7-----5-----------3-5-3-5-7-0---|
|(CLEAN W/ CHORUS)
|---------------------------------|---------------------------------|
|---------------------------------|---------------------------------|
|-----0---------------------------|-----0---------------------------|
|---0-----------------------------|---0-----------------------------|
|-3-------------------------------|-3-------------------------------|
|---------------------------------|---------------------------------|

|---------------------------------|---------------------------------||
|---------------------------------|---------------------------------||
|-------------5-------------------|---------------------------------||
|-7-----5-----5-------------------|-7-----5-----3-----5-------------||
|-7-----5-----3---------------5---|-7-----5-----3-----5-------------||
|-7-----5-----------3-5-3-5-7-----|-7-----5-----3-----5-------------||
|
|---------------------------------|---------------------------------||
|---------------------------------|---------------------------------||
|-----0---------------------------|-----0---------------------------||
|---0-----------------------------|---0-----------------------------||
|-3-------------------------------|-3-------------------------------||
|---------------------------------|---------------------------------||

CHORUS 3/OUTRO

(DISTORTION)
|--------10-------10------------10------------||
|o-------10-------10------------10-----------o||
|---------------------------------------------||
|---------------------------------------------|| x4
|o-10-12----10-12----10-12-9-12----0-3p0-3p0-o||
|--10-12----10-12----10-12-9-12----0-3p0-3p0--||
|(DISTORTION)
|---------------------------------------------||
|o-------------------------------------------o||
|---------------------------------------------||
|---------------------------------------------|| x4
|o-10-12-0--10-12-0--10-12-9-12-0--9-3p0-3p0-o||
|--10-12-0--10-12-0--10-12-9-12-0--9-3p0-3p0--||


KEY

p	=	PULL OFF
~	=	VIBRATO
h	=	HAMMER ON
PM	=	PALM MUTE
x	=	MUTE
/	=	SLIDE UP
^(x)	=	BEND UP TO NOTE IN BRACKET
\	=	SLIDE DOWN
^	=	BEND UP 1/4 OF A NOTE
HB	=	HOLD BEND
^(x)^ =	BEND UP 1/4 OF A NOTE HIGHER THAN NOTE IN BRACKETS
RP	=	RE-PICK NOTE IN BRACKETS

|o-o|	=	REPEAT BAR/SECTION
||	=	END OF SECTION





Comments


Popular Velvet Revolver tabs & chords
Set Me Free 2 Bass Tabs
Big Machine 3 Tabs
Dirty Little Thing 2 Tabs
For A Brother Tabs
Gravedancer 1 Tabs
Headspace 2 Tabs
Loving The Alien 1 Tabs
Messages Intro 1 Tabs
Set Me Free Riff Tabs
You Got No Right (Solo) Tabs


Song lyrics



↑ Back to top | Tablatures and chords are parodies/interpretations of the original songs. You may use it for private study, scholarship, research or language learning purposes only
© 2014 AZChords.com Contact us | Privacy policy | DMCA | Add/correct tabs | Request tabs | Top 50 tabs