» » »

Velvet Revolver, Set Me Free Tabs (ver.3)

Artists:  A B C D E F G H I J K L M N O P Q R S T U V W X Y Z # 

Set Me Free Tabs (ver.3)

Velvet Revolver Tabs
 Rating:
4/5 (4 votes)
Set Me Free lessons Tabs too difficult? Try these video lessons and learn fast
                VELVET REVOLVER:
Set Me Free



There are 5 parts to this song, as in so many songs the less the better.As 
it is in this awsome tune by slash and the guys....
This is the correct version of "set me free".And this is how it´s played on 
the soundtrack.




So here is the order playing the song.I have named them so its easier to 
follow...
But you can also listen to the song while playing :-)

1.Intro riff
2.Main riff
3.Verse (Duff´s stuff)
4.Chorus
5.Bridge (the "take me down down down  stuff ")
6. Thing that goes behind slash´s solo


So the PLAYING ORDER goes like this :

1.Intro riff
2.Main riff
3.Verse
2.Main riff
4.Chorus
2.Main riff
3.Verse
2.Main riff
4.Chorus
5.Bridge
1.Intro riff
6.Thing that goes behind the solo ( kushner mainly pounding the A5 chord,w/ 
a jammy touch)
4.Chorus X4






1.Intro riff:

Slash:


|-------------------------------------------------------------------------------
|--x--x-x-x--x----4r3------------------------4r3---------------------------
|--x--x-x-x--x---------5--5-5---6----1-2--------5--5-5---6-----1-2----
|--x--x-x-x--x-----------------------5----------------------------5---------
|--x--x-x-x--x---------------------------------------------------------------
|-------------------------------------------------------------------------------


|------------------------------------------------------------------------------/
|--4r3-------------------------4r3------------------------------------------/
|-------5--5-5---6----1-2--------5--5-5---6----1-2---------6-5-3----/
|---------------------5-----------------------------------------------------/


Kushner:
|----------------------------------------------------------------------------
|-----------------------------------------------------------------------------------
|-2\/\/\/-------------------------------------------------------------
|-2/\/\/\/-------------------------------------------------------------
|-0/\/\/\/-------------------------------------------------------------
|-----------------------------------------------------------------------------------


2.Main riff:

|-------------------------------------------------------/
|------------------------------------------------------/
|-----------------------------------------------------/
|-2---2-5-5--6-6---------------------------------/ X 4
|-0---0-3-3--4-4--5-5--6-6--7-7--6-5-3----/
|---------------------3-3--4-4--5-5-----------/



3. Verse:     this is duff´s territory so p**s off!!!!!  :-) Just kidding!!


B.T.W it´s the same riff as the the above(Main riff),but w/ the bass :-)

4. Chorus:


   D5    Ab5       C 5     G 5   D5  Ab 5    F5            E5
|--------------------------------------------------------------------------------/
|-------------------------------------------------------------------------------/
|------------------------------------------------------------------------------/
|-7-----------------5---------------7---------------10---------<-9-------/
|-5-------8--------3------5-------5--------8-------8----------<-7------/
|-x-------6----------------3----------------6----------------------------/






5. Bridge:

    F5              E5          G5                   E5    F5           E5   
           A5
|---------------------------------------------------------------------------------------------------
|--------------------------------------------------------------------------------------------------
|-------------------------------------------------------------------------------------------------
|-10------------9-----------12------------------9->---9-----------10------------------------
|--8------------7------------10------------------7->---8------------7------------7----------
|-------------------------------------------------------------------------------------5---------
   F5              E5           G5            Fb+1      F5             E5    
        A5
|-------------------------------------------------------------------------------------------------/
|------------------------------------------------------------------------------------------------/
|-----------------------------------------------------------------------------------------------/
|-10------------9------------12----------12-----------9-----------10---------------------/
|--8------------7------------10------------9-----------8------------7------------7-------/
|------------------------------------------------------------------------------------5------/
            
Submit corrections

comments powered by Disqus
↑ Back to top | Velvet Revolver Tabs for Set Me Free. Lyrics for acoustic guitar and electric guitar. Tablatures and chords are parodies/interpretations of the original songs. You may use it for private study, scholarship, research or language learning purposes only