» » »

Velvet Revolver, Set Me Free Tabs (ver.2)

Artists:  A B C D E F G H I J K L M N O P Q R S T U V W X Y Z # 

Set Me Free Tabs (ver.2)

Velvet Revolver Tabs
 Rating:
4/5 (4 votes)
Set Me Free lessons Tabs too difficult? Try these video lessons and learn fast
1
                Tune down 1/2 step: 

6 = Eb 3 = Gb 
5 = Ab 2 = Bb 
4 = Db 1 = Eb 


Intro 

Gtr I. Rhy. Fig. 1a 2 Rhy. Fig. 1b 4 
|---------------|-----------------------------|---|------------------------------------|---| 
|T--x--x-x-x--x-|-----------------------------|o-/|------------------------------------|o-/| 
|A--x--x-x-x--x-|-9--8--6----6--6--7----------|---|-------9--8--6----6--6--7-----------|---| 
|B--------------|---------------------6--7--8-|/-o|----------------------------6--7--8-|/-o| 
|---------------|-----------------------------|---|------------------------------------|---| 
|---------------|-----------------------------|---|------------------------------------|---| 
| 
| 
|Gtr II. 2 * 4 
|---------------|-----------------------------|---|------------------------------------|---| 
|T--------------|-----------------------------|o-/|------------------------------------|o-/| 
|A--------------|-----------------------------|---|--------3----------------------(3)--|---| 
|B--------------|-----------------------------|---|--------3----------------------(3)--|---| 
|---------------|-----------------------------|/-o|--------1----------------------(1)--|/-o| 
|---------------|-----------------------------|---|-14\--------------------------------|---| 


* Gtr I. Rhy. Fig. 2 4 
|------------------------------------------------|---| 
|------------------------------------------------|o-/| 
|------------------------------------------------|---| 
|------------------------------------------------|---| 
|--------4--4--5--5--------------------6b7r6--4--|/-o| 
|-6---6--------------4--4--5--5--6--6------------|---| 
| 
| 
|Gtr II. 4 
|------------------------------------------------|---| 
|------------------------------------------------|o-/| 
|------------------------------------------------|---| 
|------------------------------------------------|---| 
|--------4--4--5--5--------------------6b7r6--4--|/-o| 
|-6---6--------------4--4--5--5--6--6------------|---| 
| 
| 
|Gtr III. 4 
|------------------------------------------------|---| 
|------------------------------------------------|o-/| 
|--------7--7--8--8--------------------9b10r9--7-|---| 
|-9---9--------------7--7--8--8--9--9------------|---| 
|------------------------------------------------|/-o| 
|------------------------------------------------|---| 



1st Verse 

Bass plays Gtr Rhy. Fig. 2 (Repeat 4 times) 


* Gtr I. 4 
|------------------------------------------------|---| 
|------------------------------------------------|o-/| 
|------------------------------------------------|---| 
|------------------------------------------------|---| 
|--------4--4--5--5--------------------6b7r6--4--|/-o| 
|-6---6--------------4--4--5--5--6--6------------|---| 
| 
| 
|Gtr II. 4 
|------------------------------------------------|---| 
|------------------------------------------------|o-/| 
|------------------------------------------------|---| 
|------------------------------------------------|---| 
|--------4--4--5--5--------------------6b7r6--4--|/-o| 
|-6---6--------------4--4--5--5--6--6------------|---| 
| 
| 
|Gtr III. 4 
|------------------------------------------------|---| 
|------------------------------------------------|o-/| 
|--------7--7--8--8--------------------9b10r9--7-|---| 
|-9---9--------------7--7--8--8--9--9------------|---| 
|------------------------------------------------|/-o| 
|------------------------------------------------|---| 



Chorus 

Both Gtrs (Repeat 2 times) 

Eb5 B5 C#5 Ab5 Eb5 
So set me free___ set me free___ cause I think you need my soul 

B5 F#5. F5( 
set me free___ set me free________________ 


* Gtr I. 2 
|------------------------------------------------|---| 
|------------------------------------------------|o-/| 
|------------------------------------------------|---| 
|------------------------------------------------|---| 
|--------4--4--5--5--------------------6b7r6--4--|/-o| 
|-6---6--------------4--4--5--5--6--6------------|---| 
| 
| 
|Gtr II. 2 
|------------------------------------------------|---| 
|------------------------------------------------|o-/| 
|------------------------------------------------|---| 
|------------------------------------------------|---| 
|--------4--4--5--5--------------------6b7r6--4--|/-o| 
|-6---6--------------4--4--5--5--6--6------------|---| 
| 
| 
|Gtr III. 2 
|------------------------------------------------|---| 
|------------------------------------------------|o-/| 
|--------7--7--8--8--------------------9b10r9--7-|---| 
|-9---9--------------7--7--8--8--9--9------------|---| 
|------------------------------------------------|/-o| 
|------------------------------------------------|---| 


2nd Verse 

Bass plays Gtr Rhy. Fig. 2 (Repeat 4 times) 
Gtrs play Rhy. Fig. 2 (Repeat 4 times) 


Chorus 

Both Gtrs (Repeat 2 times) 

Eb5 B5 C#5 Ab5 Eb5 
So set me free___ set me free___ cause I think you need my soul 

B5 F#5. F5( 
set me free___ set me free________________ 


Bridge 

F#5 F5 Ab5 F#5 
So take me down__ take me in__ down_ down_ down_ down__ 

F5 Bb5 
take me down__ take me down____ 


 


Chorus 

Both Gtrs (Repeat 4 times) 

Eb5 B5 C#5 Ab5 Eb5 
So set me free___ set me free___ cause I think you need my soul 

B5 F#5. F5( 
set me free___ set me free________________ 


Outro 

Both Gtrs 

F#5 Ab5 F#5 Ab5 F#5 Ab5 F#5 Ab5 
Not to long____ Not to long____ Not to long____ Not to long____ 

Bb5 
Not for long____________
            
Submit corrections

comments powered by Disqus
↑ Back to top | Velvet Revolver Tabs for Set Me Free. Lyrics for acoustic guitar and electric guitar. 1 Tablatures and chords are parodies/interpretations of the original songs. You may use it for private study, scholarship, research or language learning purposes only