» » »

Let It Roll Bass tabs (ver.1)

Artists:  A B C D E F G H I J K L M N O P Q R S T U V W X Y Z # 

Let It Roll Bass tabs (ver.1)

Velvet Revolver
Rating:
0/5 (0 votes)

Tabs too difficult? Try these video lessons and learn fast.
                Let it Roll by Velvet Revolver

standard tuning

I made this tab because there isn’t one for bass and that really annoyed me. There may 
some changes on the number of notes maybe on the chorus but you will have to decide those 
other than that the notes are correct. Enjoy.

Intro
G|---------------------------------------------------------------|
D|-13-13-13-13-13-13-13-13-13-13-13-13-13-13-13-13-13-13-13-13-13|
A|---------------------------------------------------------------|
E|---------------------------------------------------------------|

Verse
G|---------------|
D|---------------|         x4
A|-7-6-5-------5-|
E|-------5-4-3---|

Chorus
G|------------------------------|
D|------------------------------|        x4
A|------------------------5-----|
E|-0-000-0-000--0-0-0-0-5-------|

Bridge
G|------------------|
D|------------------|
A|-3333---5-55555---|
E|------3---------5-|

Verse
G|---------------|
D|---------------|         x4
A|-7-6-5-------5-|
E|-------5-4-3---|

Chorus
G|------------------------------|
D|------------------------------|        x4
A|------------------------5-----|
E|-0-000-0-000--0-0-0-0-5-------|

Bridge
G|------------------|
D|------------------|
A|-3333---5-55555---|
E|------3---------5-|

Verse
G|---------------|
D|---------------|         x2
A|-7-6-5-------5-|
E|-------5-4-3---|

Bridge
G|------------------|
D|------------------|
A|-3333---5-55555---|
E|------3---------5-|

Verse
G|---------------|
D|---------------|         x4
A|-7-6-5-------5-|
E|-------5-4-3---|

Pre-Solo
G|---------------------------------------------|
D|---------------------------------------------|
A|--------33333---5555555--555-444-333-222-1-1-|
E|-7777-3-------5------------------------------|

Solo
G|------------------------------|
D|------------------------------|        x4
A|------------------------5-----|
E|-0-000-0-000--0-0-0-0-5-------|

Bridge version 2
G|-----------------------------------|
D|-----------------------------------|
A|-3333---5-55555---77777-0-1-2-3-4-5|
E|------3---------5------------------|

Verse
G|---------------|
D|---------------|         x8
A|-7-6-5-------5-|
E|-------5-4-3---|

Summary

Intro     x1
Verse     x4
Chorus    x4
Bridge    x1
Verse     x4
Chorus    x4
Bridge    x1
Verse     x2
Bridge    x1
Verse     x4
Pre-Solo  x1
Solo      x4 (identical to Chorus)
Bridge V2 x1
Verse     x8
            
Tabs too difficult? Try these video lessons and learn fast.




comments powered by Disqus
↑ Back to top | Tablatures and chords are parodies/interpretations of the original songs. You may use it for private study, scholarship, research or language learning purposes only