» » »

Velvet Revolver, Headspace Tabs (ver.4)

Artists:  A B C D E F G H I J K L M N O P Q R S T U V W X Y Z # 

Headspace Tabs (ver.4)

Velvet Revolver Tabs
 Rating:
4/5 (4 votes)
Headspace lessons Tabs too difficult? Try these video lessons and learn fast
                Velvet Revolver
Headspace
standard tuning


intro
e------------------------------------------------------------l
B------------------------------------------------------------l
G----55555555---4/5555555---4/5555555---4/5555555------------l
D----55555555---4/5555555---4/5555555---4/5555555------------l
A----33333333---2/3333333---2/3333333---2/3333333------------l
E------------------------------------------------------------l


main riff
e-----------------------------------------------------------l
B-----------------------------------------------------------l
G----5/7\5--------------------------------------------------l
D----5/7\5----3---3---3---2---------------------------------l
A----3/5\3----3---3---3---2---------------------------------l
E-------------1---1---1---0---------------------------------l


(lead over the main riff with wah pedal)
e-----------------------------------------------------------l
B-----------------------------------------------------------l
G-----------------------------------------------------------l
D--------------3---5---6---2--------------------------------l
A----3/5\3---0---0---0---0----------------------------------l
E-----------------------------------------------------------l


verse (this isnt exact, listen to it to get the feel) 
sometimes the strings are muted
e------------------------------------------------------------l
B------------------------------------------------------------l
G------------------------------------------------------------l
D------5/7--7-7-7-7-7-5/7----7\5-----------------------------l
A------5/7--7-7-7-7-7-5/7----7\5-----------------------------l
E------3/5--5-5-5-5-5-3/5----5\3-----------------------------l



not sure about this part,something like this? 
if some one can figure it out you can correct it
rythm chords are D, F, C, Bb
e-----------------------------------------------------------l
B-----------------------------------------------------------l
G-----------------------------------------------------------l
D-----------------------------------------------------------l
A--0h3h5p0h3h5p3h5------------------------------------------l
E-----------------------------------------------------------l


feel free to correct any mistakes
            
Submit corrections

comments powered by Disqus
↑ Back to top | Velvet Revolver Tabs for Headspace. Lyrics for acoustic guitar and electric guitar. Tablatures and chords are parodies/interpretations of the original songs. You may use it for private study, scholarship, research or language learning purposes only