» » »

Velvet Revolver, Do It For The Kids Bass tabs (ver.2)

Artists:  A B C D E F G H I J K L M N O P Q R S T U V W X Y Z # 

Do It For The Kids Bass tabs (ver.2)

Velvet Revolver Tabs
 Rating:
4/5 (4 votes)
Do It For The Kids lessons Tabs too difficult? Try these video lessons and learn fast
1
                
DO IT FOR THE KIDS (Bassline)
As recorded by Velvet Revolver
(From the 2004 Album CONTRABAND)

	

Words and Music by Scott Weiland, Slash, Duff, Matt Sorum, Dave Kushner

Gtr I (E A D G) - 'Untitled'

 Intro
  Q=155
 4/4
  Gtr I
  Wx2
|--------|
|--------|
|--------|
|--------|


   Pre-Verse
    E E E E E E E E   E E E E +E  E +E  E
||------------------|---------------------|
||o-----------------|---------------------|
||o-----------------|---------------------|
||--5-5-3-4-5-5-3-4-|-5-5-3-6-(6)-8-(8)-6-|


  E E E E E E E E   E E E E +E  E +E  E
|-----------------|-----------------------||
|-----------------|----------------------o||
|-----------------|----------------------o||
|-5-5-3-4-5-5-3-4-|-5-5-3-6-(6)-8-(8)-6---||


   Verse
    E E E E E E E E   E E E E +E  E +E  E
||------------------|---------------------|
||o-----------------|---------------------|
||o-----------------|---------------------|
||--5-5-3-4-5-5-3-4-|-5-5-3-6-(6)-8-(8)-6-|


  E E E E E E E E   E E E E +E  E +E  E   3x
|-----------------|-----------------------||
|-----------------|----------------------o||
|-----------------|----------------------o||
|-5-5-3-4-5-5-3-4-|-5-5-3-6-(6)-8-(8)-6---||


  E E E E E E E E   E E E E +E  E +E  E   E E E E E E E  E   E E E E E E E E
|-----------------|---------------------|------------------|-----------------||
|-----------------|---------------------|---------------/5-|-6-7-7-7-7-5-----||
|-----------------|---------------------|------------------|-------------7-0-||
|-5-5-3-4-5-5-3-4-|-5-5-3-6-(6)-8-(8)-6-|-5-5-3-4-5-5-0----|-----------------||


 Chorus
  E E E E E E E E   E E E E E E E E   E E E E E E E E   E E E E E E E E
|-----------------|-----------------|-----------------|-----------------|
|-----------------|-----------------|-----------------|-----------------|
|-5-5-5-5-5-5-5-5-|-5-5-5-5-5-5-5-5-|-----------------|-----------------|
|-----------------|-----------------|-5-5-5-5-5-5-5-5-|-5-5-5-5-5-5-5-5-|


  E E E E E E E E   E E E E E E E E   E E E E E E E E   E E E E Q  Q
|-----------------|-----------------|-----------------|---------------||
|-----------------|-----------------|-----------------|---------------||
|-8-8-8-8-8-8-8-8-|-8-8-8-8-8-8-8-8-|-----------------|---------8--7--||
|-----------------|-----------------|-5-5-5-5-5-5-5-5-|-5-5-5-0-------||


 Pre-Verse
  E E E E E E E E   E E E E +E  E +E  E   E E E E E E E E
|-----------------|---------------------|-----------------|
|-----------------|---------------------|-----------------|
|-5-5-5-5-5-5-5-5-|-5-5-5-3-(3)-1-(1)-1-|-----------------|
|-----------------|---------------------|-5-5-3-4-5-5-3-4-|


  E E E E +E  E +E  E   E E E E E E E E   E E E E +E  E +E  E
|---------------------|-----------------|---------------------||
|---------------------|-----------------|---------------------||
|---------------------|-----------------|---------------------||
|-5-5-3-6-(6)-8-(8)-6-|-5-5-3-4-5-5-3-4-|-5-5-3-6-(6)-8-(8)-6-||


   Verse
    E E E E E E E E   E E E E +E  E +E  E
||------------------|---------------------|
||o-----------------|---------------------|
||o-----------------|---------------------|
||--5-5-3-4-5-5-3-4-|-5-5-3-6-(6)-8-(8)-6-|


  E E E E E E E E   E E E E +E  E +E  E   3x
|-----------------|-----------------------||
|-----------------|----------------------o||
|-----------------|----------------------o||
|-5-5-3-4-5-5-3-4-|-5-5-3-6-(6)-8-(8)-6---||


  E E E E E E E E   E E E E +E  E +E  E   E E E E E E E  E   E E E E E E E E
|-----------------|---------------------|------------------|-----------------||
|-----------------|---------------------|---------------/5-|-7-7-7-7-7-5-----||
|-----------------|---------------------|------------------|-------------7-0-||
|-5-5-3-4-5-5-3-4-|-5-5-3-6-(6)-8-(8)-6-|-5-5-3-4-5-5-0----|-----------------||


   Chorus
    E E E E E E E E   E E E E E E E E   E E E E E E E E   E E E E E E E E
||------------------|-----------------|-----------------|------------------|
||o-----------------|-----------------|-----------------|------------------|
||o-5-5-5-5-5-5-5-5-|-5-5-5-5-5-5-5-5-|-----------------|------------------|
||------------------|-----------------|-5-5-5-5-5-5-5-5-|-5-5-5-5-5-5-5-5--|


  E E E E E E E E   E E E E E E E E   E E E E E E E E
|-----------------|-----------------|-----------------|
|-----------------|-----------------|-----------------|
|-8-8-8-8-8-8-8-8-|-8-8-8-8-8-8-8-8-|-----------------|
|-----------------|-----------------|-5-5-5-5-5-5-5-5-|


  1.                2.
  E E E E Q  Q      E E E E E E E E
|----------------||-----------------||
|---------------o||-----------------||
|---------8--7--o||-----------------||
|-5-5-5-0--------||-5-5-5-5-5-5-5-5-||


   Bridge
    E E E E E E E E   E E E E E E E E   E E E E E E E E   E E E E E E E E
||------------------|-----------------|-----------------|------------------|
||o-----------------|-----------------|-----------------|------------------|
||o-----------------|-----------------|-3-3-3-3-3-3-3-3-|-3-3-3-3-3-3-3-3--|
||--1-1-1-1-1-1-1-1-|-1-1-1-1-1-1-1-1-|-----------------|------------------|


  E E E E E E E E   E E E E E E E E   E E E E E E E E   E E E E E E E E
|-----------------|-----------------|-----------------|------------------||
|-----------------|-----------------|-----------------|-----------------o||
|-1-1-1-1-1-1-1-1-|-1-1-1-1-1-1-1-1-|-----------------|-----------------o||
|-----------------|-----------------|-1-1-1-1-1-1-1-1-|-5-5-5-5-5-5-5-5--||


 Guitar Solo
  E E E E E E E E   E E E E +E  E +E  E   E E E E E E E E   E E E E E E E E
|-----------------|---------------------|-----------------|-----------------|
|-----------------|---------------------|-----------------|-----------------|
|-5-5-5-5-5-5-5-5-|-5-5-5-3-(3)-1-(1)-1-|-----------------|-----------------|
|-----------------|---------------------|-5-5-3-4-5-5-3-4-|-5-5-3-4-5-6-6-6-|


    E E E E E E E E   E E E E E E E E
||------------------|------------------||
||o-----------------|-----------------o||
||o-----------------|-----------------o||
||--5-5-3-4-5-5-3-4-|-5-5-3-4-5-6-6-6--||


  E E E E E E E E   E E E E +E  E +E  E
|-----------------|----------------------||
|-----------------|----------------------||
|-----------------|----------------------||
|-5-5-3-4-5-5-3-4-|-5-5-3-6-(6)-8-(8)-6--||


   Verse 3
    E E E E E E E E   E E E E +E  E +E  E  3x E H..         W
||------------------|----------------------||-------------|------||
||o-----------------|---------------------o||-------------|------||
||o-----------------|---------------------o||-------------|------||
||--5-5-3-4-5-5-3-4-|-5-5-3-6-(6)-8-(8)-6--||-5-----------|------||


   Chorus
    E E E E E E E E   E E E E E E E E   E E E E E E E E   E E E E E E E E
||------------------|-----------------|-----------------|------------------|
||o-----------------|-----------------|-----------------|------------------|
||o-5-5-5-5-5-5-5-5-|-5-5-5-5-5-5-5-5-|-----------------|------------------|
||------------------|-----------------|-5-5-5-5-5-5-5-5-|-5-5-5-5-5-5-5-5--|


  E E E E E E E E   E E E E E E E E   E E E E E E E E   E E E E Q  Q
|-----------------|-----------------|-----------------|----------------||
|-----------------|-----------------|-----------------|---------------o||
|-8-8-8-8-8-8-8-8-|-8-8-8-8-8-8-8-8-|-----------------|---------8--7--o||
|-----------------|-----------------|-5-5-5-5-5-5-5-5-|-5-5-5-0--------||


 Out-Chorus
  E E E E E E E E   E E E E E E E E   E E E E E E E E   E E E E E E E E
|-----------------|-----------------|-----------------|-----------------|
|-----------------|-----------------|-----------------|-----------------|
|-5-5-5-5-5-5-5-5-|-5-5-5-5-5-5-5-5-|-----------------|-----------------|
|-----------------|-----------------|-5-5-5-5-5-5-5-5-|-5-5-5-5-5-5-5-5-|


  E E E E E E E E   E E E E E E E E   E E E E E E E E   E E E E E E E E
|-----------------|-----------------|-----------------|-----------------|
|-----------------|-----------------|-----------------|-----------------|
|-----------------|-----------------|-----------------|-----------------|
|-1-1-1-1-1-1-1-1-|-1-1-1-1-1-1-1-1-|-5-5-5-5-5-5-5-5-|-5-5-5-5-5-5-5-5-|


  E E E E E E E E   E E E E E E E E   E E E E E E E E   E E E E E E E E
|-----------------|-----------------|-----------------|-----------------|
|-----------------|-----------------|-----------------|-----------------|
|-5-5-5-5-5-5-5-5-|-5-5-5-5-5-------|-----------------|-----------7-7-0-|
|-----------------|-----------0-3-4-|-5-5-5-5-5-5-5-5-|-5-5-5-5-5-------|


                                                        Q=135
  E E E E E E E E   E E E E E E E E   E E E E E E E E   E E E E Q  Q
|-----------------|-----------------|-----------------|---------------||
|-----------------|-----------------|-----------------|---------------||
|-8-8-8-8-8-8-8-8-|-8-8-8-8-8-8-8-8-|-----------------|---------8--7--||
|-----------------|-----------------|-5-5-5-5-5-5-5-5-|-5-5-5-0-------||


 Outro
             Q=120
  W          +W           +H     Q  Q
|----------|------------|--------------*|
|----------|------------|--------------*|
|-5--------|-(5)--------|-(5)----5-----*|
|----------|------------|--------------*|



Duration Legend
---------------
W - whole; H - half; Q - quarter; E - 8th; S - 16th; T - 32nd; X - 64th; a - acciaccatura
+ - note tied to previous; . - note dotted; .. - note double dotted
Uncapitalized letters represent notes that are staccato (1/2 duration)
Irregular groupings are notated above the duration line
Duration letters will always appear directly above the note/fret number it represents the
duration for.  Duration letters with no fret number below them represent rests.  Multi-
bar rests are notated in the form Wxn, where n is the number of bars to rest for.  Low
melody durations appear below the staff

Tablature Legend
----------------
 h   - hammer-on
 p   - pull-off
 b   - bend
 pb  - pre-bend
 r   - bend release (if no number after the r, then release immediately)
 /\  - slide into or out of (from/to "nowhere")
 s   - legato slide
 S   - shift slide
 - natural harmonic
[n]  - artificial harmonic
n(n) - tapped harmonic
 ~   - vibrato
 tr  - trill
 T   - tap
 TP  - trem. picking
 PM  - palm muting
\n/  - tremolo bar dip; n = amount to dip
 \n  - tremolo bar down
 n/  - tremolo bar up
/n\  - tremolo bar inverted dip
 =   - hold bend; also acts as connecting device for hammers/pulls
 <> - volume swell (louder/softer)
 x   - on rhythm slash represents muted slash
 o   - on rhythm slash represents single note slash

Misc Legend
-----------
 |  - bar
||  - double bar
||o - repeat start
o|| - repeat end
*|  - double bar (ending)
 :  - bar (freetime)
 $  - Segno
 &  - Coda
Tempo markers -  = BPM(8/16=s8/s16), where s8 = swing 8ths, s16 = swing 16ths
            
Submit corrections

comments powered by Disqus
↑ Back to top | Velvet Revolver Bass for Do It For The Kids. Lyrics for acoustic guitar and electric guitar. 1 Tablatures and chords are parodies/interpretations of the original songs. You may use it for private study, scholarship, research or language learning purposes only