» » »

American Man Tabs (ver.3)

Artists:  A B C D E F G H I J K L M N O P Q R S T U V W X Y Z # 

American Man Tabs (ver.3)

Velvet Revolver
Rating:
0/5 (0 votes)

Hard to play? Try these video lessons and learn fast.
                The other American Man tabs are pretty bad so I figured I'd quickly tab the right 
way to play it. No solo though, sorry. Should be 100% right, based on live videos of the song.

Tuning: Standard

Lead Guitar: Slash
Rhythm Guitar: Dave Kushner


Intro/Chorus Slash:
   A      E      C        G
E--5-5-X---------8--8--X--------------------------|
B--5-5-X--5-5-X--8--8--X--8--8--8-----------------|
G--6-6-x--4-4-X--9--9--X--7--7--7-----------------|
D--7-7-x--6-6-X--10-10-X--9--9--9-----------------|
A---------7-7-X-----------10-10-10----------------|
E-------------------------------------------------|


Intro/Chorus Dave:
   A      E      C      G
E-------------------------------------------------|
B-------------------------------------------------|
G--2-2-x--1-1-X-----------------------------------|
D--2-2-x--2-2-X--5-5-X--5-5-5---------------------|
A--0-0-x--2-2-X--3-3-X--5-5-5---------------------|
E---------0-0-X---------3-3-3---------------------|


Verse Slash:
   E
E-------------------------------------------------|
B-------------------------------------------------|
G-------------------------------------------------|
D--9---------9-----9----9---------9-----9---------|
A--6---------6-----6----9---------9-----9---------|
E--7-7-7-7-7-7-7-7-7----7-7-7-7-7-7-7-7-7---------|

   E
E-------------------------------------------------|
B-------------------------------------------------|
G-------------------------------------------------|
D--9---------9-----9------------------------------|
A--7---------7-----7----10---------10-----10------|
E--7-7-7-7-7-7-7-7-7----7--7-7-7-7-7--7-7-7-------|


Interlude:

E------------------------------------------------------|
B------------------------------------------------------|
G------------------------------------------------------|
D------------------------------------------------------|
A------6h-7s-9~~--10~~--9s-7~~-9~~-7h-9p-7s-6---------9|
E--7~~-----------7----------------------------7s-2-s7--|

E-----------------------------------------------------|
B-------------------------------------------10----12~-|
G---------------------------9----11-9-12-11----11-----|
D----------------11-9-12-11---12----------------------|
A----10^br-10~-9--------------------------------------|
E--7--------------------------------------------------|

End Chords:

   C      G    D        
E---------3----2----------------------------------|
B--1------3----3----------------------------------|
G--0------0----2----------------------------------|
D--2------0----0----------------------------------|
A--3-----------0----------------------------------|
E---------3---------------------------------------|
            
Hard to play? Try these video lessons and learn fast. | Correct




comments powered by Disqus
↑ Back to top | Tablatures and chords are parodies/interpretations of the original songs. You may use it for private study, scholarship, research or language learning purposes only