» » »

Velvet Revolver, American Man Bass tabs (ver.1)

Artists:  A B C D E F G H I J K L M N O P Q R S T U V W X Y Z # 

American Man Bass tabs (ver.1)

Velvet Revolver Tabs
 Rating:
4.3/5 (6 votes)
American Man lessons Tabs too difficult? Try these video lessons and learn fast
1
                
-------------------------------------------------------------------------------
-------------------------------------------------------------------------------



Played by: Duff McKagan  
Pick or finger: Pick
Tuning: Normal

    
0:00    Drums    x4
|--------r--------|
|*-------e-------*|
|*-------s-------*|
|--------t--------|


0:06    Intro			   x6
|-----------------|-----------------|
|*----------------|---0-2----------*|
|*0-4-5-----0-2-3-|----------------*|
|-------0---------|-------3---3-2-0-|


0:27    Verse 1							       x4
|-----------------|-----------------|-----------------|-0-0-0-0-2-2-2-2-|
|*----------------|-1-1-1-1---1-1-1-|-2---2-2---2-2-2-|----------------*|
|*2---2-2---2-2-2-|-----------------|-----------------|----------------*|
|-----------------|-----------------|-----------------|-----------------|


0:55    Chorus                     
|-----------------|-----------------|-----------------|-------0---0-----|
|-----------------|---0-2-----------|-----------------|---0-2-------4-2-|
|-0-4-5-----0-2-3-|-----------------|-0-4-5-----0-2-3-|-----------------|
|-------0---------|-------3---3-2-0-|-------0---------|-----------------|
			   
|-----------------|-----------------|-----------------|-----------------|
|-----------------|---0-2-----------|-----------------|---0-2-----------|
|-0-4-5-----0-2-3-|-----------------|-0-4-5-----0-2-3-|-----------------|
|-------0---------|-------3---3-2-0-|-------0---------|-------3---3-2-0-|


1:09    Slash Solo						       x2
|-----------------|-----------------|-----------------|-0-0-0-0-2-2-2-2-|
|*----------------|-1-1-1-1---1-1-1-|-2---2-2---2-2-2-|----------------*|
|*2---2-2---2-2-2-|-----------------|-----------------|----------------*|
|-----------------|-----------------|-----------------|-----------------|


1:23	Verse 2                                                        x3
|-----------------|-----------------|-----------------|-0-0-0-0-2-2-2-2-|
|*----------------|-1-1-1-1---1-1-1-|-2---2-2---2-2-2-|----------------*|
|*2---2-2---2-2-2-|-----------------|-----------------|----------------*|
|-----------------|-----------------|-----------------|-----------------|


1:44    Chorus                     
|-----------------|-----------------|-----------------|-----------------|
|-----------------|---0-2-----------|-----------------|---0-2-----------|
|-0-4-5-----0-2-3-|-----------------|-0-4-5-----0-2-3-|-----------------|
|-------0---------|-------3---3-2-0-|-------0---------|-------3---3-2-0-|
			   
|-----------------|-----------------|-----------------|-------0---0-----|
|-----------------|---0-2-----------|-----------------|---0-2-------4-2-|
|-0-4-5-----0-2-3-|-----------------|-0-4-5-----0-2-3-|-----------------|
|-------0---------|-------3---3-2-0-|-------0---------|-----------------|


1:58	Bridge/Interlude
|-----------------|-----------------|-----------------|-----------------|
|-----------------|-----------------|-----------------|-----------------|
|-0-0-0-----------|-3-3-3-3---------|-0-0-0-----------|-3-3-3-3---------|
|-------0-----0---|---------3---3-3-|-------0-----0---|---------3-3-3-0-|

|-----------------|-----------------|-----------------|-----------------|
|-----------------|-----------------|-----------------|---------5h7-5---|
|-0-0-0-----------|-3-3-3-3---------|-0-0-0-----------|-3-3-3-----------|
|-------0-----0---|---------3-3-3-3-|-------0-----0---|-------3---------|

				  x11
|-----------------|-----------------|
|*----------------|----------------*|
|*0-0-0-----------|-3-3-3-3--------*|
|-------0---0-0---|---------3-3-3-3-|
			               

2:49 	Lead-in 
|-----------------|-----------------|
|-----------------|---0-2-----------| 	(The Lead-in will
|-0-4-5-----0-2-3-|-----------------|  	interrupt Scott's
|-------0---------|-------3---3-----|	 Vocals)


2:53	2nd Slash Solo                                                 x4
|-----------------|-----------------|-----------------|-0-0-0-0-2-2-2-2-|
|*----------------|-1-1-1-1---1-1-1-|-2---2-2---2-2-2-|----------------*|
|*2---2-2---2-2-2-|-----------------|-----------------|----------------*|
|-----------------|-----------------|-----------------|-----------------|


3:20	Chorus
|-----------------|-----------------|-----------------|-------0---0-----|
|-----------------|---0-2-----------|-----------------|---0-2-------4-2-|
|-0-4-5-----0-2-3-|-----------------|-0-4-5-----0-2-3-|-----------------|
|-------0---------|-------3---3-2-0-|-------0---------|-----------------|
			   
|-----------------|-----------------|-----------------|-------0---0-----|
|-----------------|---0-2-----------|-----------------|---0-2-------4-2-|
|-0-4-5-----0-2-3-|-----------------|-0-4-5-----0-2-3-|-----------------|
|-------0---------|-------3---3-2-0-|-------0---------|-----------------|


3:35	Outro			   x3
|---6-7-----------|---7-9-----------|
|*7---------7-9-10|----------------*|
|*------7---------|-------10-10-9-7*|
|-----------------|-----------------|

|---6-7-----------|-----------------|-----------------|-----------------|
|-7---------7-9---|-10--------------|-9---------------|-7---------------|
|-------7---------|-----------------|-----------------|-----------------|
|-----------------|-----------------|-----------------|-----------------|





| /  slide up
| \  slide down
| h  hammer-on
| p  pull-off
| ~  vibrato
| +  harmonic
| x  Mute note
===============================================================================
            
Submit corrections

comments powered by Disqus
↑ Back to top | Velvet Revolver Bass for American Man. Lyrics for acoustic guitar and electric guitar. 1 Tablatures and chords are parodies/interpretations of the original songs. You may use it for private study, scholarship, research or language learning purposes only