>
 >
American Man

American Man Guitar Tabs

Velvet Revolver - American Man chords, tabs, tablatures, lyrics

Guitar lessons | Add/correct | Request | Top 50 tabs Artists:  A B C D E F G H I J K L M N O P Q R S T U V W X Y Z 0-9

American Man Guitar Tabs – Velvet Revolver

CD, Sheet music, Poster

Do you like American Man? Share with your friends now
Bass TabsTabsTabs v2Tabs v3
 Velvet Revolver **AMERICAN MAN TAB**

Intro Chorus:
   A      E    C        G
E--5-5---------8--8-------------------------------|
B--5-5-x--9-9--8--8----12-------------------------|
G--6-6-x--9-9--9--9----12-------------------------|
D--7-7-x--9-9--10-10---12-------------------------|
A--7-7-x--7-7--10-10---10-------------------------|
E--5-5---------8--8-------------------------------|

Verse:
    E
E-------------------------------------------------|
B-------------------------------------------------|
G-------------------------------------------------|
D--2-x--x--2---2-x--x--2--------------------------|
A--2-x--x--2---2-x--x--2--------------------------|
E--0-0--0--0---0-0--0--0--------------------------|


Interlude:

E-------------------------------------------------|
B-------------------------------------------------|
G---11~~~~----------------------------------------|
D-------------------------------------------------|
A--------6h-7h-9-----10~~--9--7~~-9~~-7h-9p-7//---|
E-------------------7-----------------------------|

E-------------------------------------------------|
B---------------------------------7h-10-9h-10-12~-|
G-----------------------------7h-9----------------|
D-------------------------7h-9--------------------|
A-6BR---9~10^BR-10-9h10---------------------------|
E-----7-------------------------------------------|

Chorus:

   A      E    C        G
E--5-5---------8--8-------------------------------|
B--5-5-x--9-9--8--8----12-------------------------|
G--6-6-x--9-9--9--9----12-------------------------|
D--7-7-x--9-9--10-10---12-------------------------|
A--7-7-x--7-7--10-10---10-------------------------|
E--5-5---------8--8-------------------------------|

Bridge: Play Through Out

E-------------------------------------------------|
B---9--9--12-12--13-13---15-15--------------------|
G---9--9--11-11--12-12---14-14--------------------|
D-------------------------------------------------|
A-------------------------------------------------|
E-------------------------------------------------|


Solo:

E-----------12^fb---14FB^^^^^^14BRv-12~~~-12-12---|
B-----12-12---------------------------------------|
G--11---------------------------------------------|
D-------------------------------------------------|
A-------------------------------------------------|
E-------------------------------------------------|

E-11^HBR-11---14---15-14H-15P-12~~-12^fb-12-11h12-|
B-----------12------------------------------------|
G----------------11-------------------------------|
D-------------------------------------------------|
A-------------------------------------------------|
E-------------------------------------------------|

E--11^HBR-14--14---15^FB-15~~~-15-15-14-14-14-12-|
B------12---12------------------------------------|
G-------------------------------------------------|
D-------------------------------------------------|
A-------------------------------------------------|
E-------------------------------------------------|

E-12-11H-12-14----------19-19~~-20-19-19--17h-19--|
B--------------12--12-----------------------------|
G-------------------------------------------------|
D-------------------------------------------------|
A-------------------------------------------------|
E-------------------------------------------------|

E-P17-17------------------------------------------|
B--------20--17h-20p-17--17-----------------------|
G---------------------------17h-19p-17------------|
D--------------------------------------19//21-----|
A-------------------------------------------------|
E-------------------------------------------------|

Outro Chorus:

   A      E    C        G
E--5-5---------8--8-------------------------------|
B--5-5-x--9-9--8--8----12-------------------------|
G--6-6-x--9-9--9--9----12-------------------------|
D--7-7-x--9-9--10-10---12-------------------------|
A--7-7-x--7-7--10-10---10-------------------------|
E--5-5---------8--8-------------------------------|

End Chords 
 
   C        G       D
E--8-----------------10----------------------------|
B--8--------9--------10----------------------------|
G--9--------9--------11----------------------------|
D--10-------9--------12----------------------------|
A--10-------10-------12----------------------------|
E--10----------------10----------------------------|

Legend:

HB: Half Bend

H: Hammer On

P: Pull Off

B: Bend

FB: Full Bend





Comments


Popular Velvet Revolver tabs & chords
Fall To Pieces 2 Bass Tabs
Pills Demons Etc Bass Tabs
Fall To Pieces Chords
Fall To Pieces 1 Chords
Loving The Alien Chords
American Man 3 Tabs
Big Machine 1 Tabs
Illegal I Song Intro Tabs
Set Me Free 1 Tabs
Loving The Alien Ukulele


Song lyrics



↑ Back to top | Tablatures and chords are parodies/interpretations of the original songs. You may use it for private study, scholarship, research or language learning purposes only
© 2014 AZChords.com Contact us | Privacy policy | DMCA | Add/correct tabs | Request tabs | Top 50 tabs