>
 >
Un Lugar Celestial

Un Lugar Celestial Bass Tabs

Velasquez Jaci - Un Lugar Celestial chords, tabs, tablatures, lyrics

Guitar lessons | Add/correct | Request | Top 50 tabs Artists:  A B C D E F G H I J K L M N O P Q R S T U V W X Y Z 0-9

Un Lugar Celestial Bass Tabs – Velasquez Jaci

CD, Sheet music, Poster

Do you like Un Lugar Celestial? Share with your friends now
Bass TabsTabsTabs v2
(C)1996 Longitude Music Co. on behalf of Windswept Pacific Ltd./BMI


INTRO:

                    Bmin7     D/E  Emin  D/E          Emin
       8          q q q E s     w  +w    e e e q Q    w
|---------------|-r-r-r-r-9-|-7/9-|-9--|---------11\|-9----------|
|------\\-------|-----------|-----|----|-r-r-r-9----|------------|
|-------\\------|-----------|-----|----|------------|------------|
|---------------|-----------|-----|----|------------|------------|


VERSE

     4           4           4
|-----------|-----------|-----------
|----\\-----|----\\-----|----\\-----
|-----\\----|-----\\----|-----\\----
|-----------|-----------|-----------



  Amin7             B7    Em-sus4       Emin
                                      e q e q q
|-----------|-----------|-----------|-------------
|----\\-----|----\\-----|----\\-----|-r-r-r-------
|-----\\----|-----\\----|-----\\----|-------7-5---
|-----------|-----------|-----------|-------------



BRIDGE

  C           Dsus4/9     Bmin/E     E
  w           w           H     q    h      q q
|-----------|-----------|----------|-------------
|-----------|-----------|----------|-------------
|-----------|-5---------|-7--------|--------7-5--
|-8\--------|-----------|-------7\-|-0-----------


  C           Dsus4/9     Amin7/9
  w           w           Q Q    q   +h  h
|-----------|-----------|-----------|-------------
|-----------|-----------|------rb9*-|-9-----------
|-----------|-5-------\-|-0-7-------|-------------
|-8-------\-|-----------|-----------|----7--------
                         (*halfstep bend pick\release)

  C           Dsus4/9     Bmin/E     E
  w           w           H     q    H+e      e
|-----------|-----------|----------|-------------
|-----------|-----------|----------|-------------
|-----------|-5-------/-|-7--------|-------------
|-8-------\-|-----------|-------7\-|-0-------/7--



  C   D/G C               B7
  Q   Q   q  +w           h+e e e e   h   h
|-----------|-----------|/8~--------|-------------
|-----------|-----------|-----7-----|-------------
|----10-----|-----------|-------9-7-|-6-----------
|-8-------8-|-8---------|-----------|-----7---\---



CHORUS

  Emin                  Amin7
  Q e q e e   e q Q q   Q e q e e   e q Q q
|-----------|---------|-----------|---------
|-----------|---------|-----------|---------
|-----------|---------|-0-7-7-0-0-|-0-0-7-0-
|-0-7-7-0-0-|-0-0-7-0-|-----------|---------



  D                       B7
  Q e q e e   e q Q q   H  q       w
|-----------|---------|----------|-------------
|-0-7-7-0-0-|-0-0-7-0-|----------|-------------
|-----------|---------|----9-----|-------------
|-----------|---------|-7--------|-7-----\-----



  Emin                  Amin7
  Q e q e e   e q Q q   Q e q e e   e q q e e
|-----------|---------|-----------|-----------
|-----------|---------|-------7-7-|-7---------
|-----------|---------|-0-7-7-----|---0-0-7-0-
|-0-7-7-0-0-|-0-0-7-0-|-----------|-----------


  D                       B7
  Q e q e e   e q Q q   H  q       w
|-----------|---------|----------|-------------
|-----------|---------|----------|-9-----\-----
|-5-0-0-5-5-|-5-0-0-5/|----9-----|-------------
|-----------|---------|-7--------|-------------


  B7/E        Emin        D/E         Emin
  H     e e   w           w           w
|-----------|-----------|-----------|-------------
|-----------|-----------|-----------|-------------
|---------7-|-----------|-7---------|-------------
|-0-----7---|-0---------|-----------|-0-----------



2nd VERSE

  Emin        Emin/maj7   G/E         A9
  w           w           H       q   w
|-----------|-----------|-----------|-------------
|-----------|-----------|-----------|-------------
|-7---------|-----------|-----------|-------------
|-----------|-7---------|-0------/7-|-5-----------


                
  Amin7              B7   Emin                B7
  w            +h    h    w            +h     q  q
|-------------|---------|-------------|-------------
|-------------|---------|-------------|-------------
|-------------|---------|-------------|-------------
|-5-----------|------/7-|-0-----------|------/7-/7--


  Emin          Emin/maj7   G/E           A9
  w             w           w             H+e       e
|-------------|-----------|-------------|-------------
|-------------|-----------|-------------|-------------
|-------------|-----------|-------------|-----------7-
|-0-----------|-5h7-------|-0-----------|-5-----------



  Amin7/9     Amin B7     Em-sus2         Emin
  w           +h   h      w             h   e q q
|-----------|-----------|-------------|-----------|
|-----------|-----------|-------------|-----------|
|-----------|-----------|-------------|-7-----7-5-|
|-5---------|------7----|-0-----------|-----0-----|



2nd BRIDGE

  C           Dsus4/9     Bmin/E     E
  w           w           H     q    h      q q
|-----------|-----------|----------|-------------
|-----------|-----------|----------|-------------
|-----------|-----------|----------|-7------7-5--
|-8---------|-10------\-|-0-----/7-|-------------


  C           Dsus4/9     Amin7/9
  Q  Q   q    w           Q Q    q   +h  h
|-----------|-----------|-----------|-------------
|----5------|-----------|------rb9*-|-9-----------
|-3------3--|-5-------\-|-0-7-------|-------------
|-----------|-----------|-----------|----7b-------
                         (*halfstep bend pick\release)


  C           Dsus4/9     Bmin/E     E
  w           w           H    e e   h      q q
|-----------|-----------|----------|-------------
|-----------|-----------|----------|-------------
|-----------|-----------|-7------7-|--------7-5--
|-8------/--|-10--------|------7---|-0-----------


  C  D/G  C               B7
  Q  Q    q  +H      q    w          +w
|--------/9~|-9~--------|-----------|-------------
|----5------|-----------|-----------|-------------
|-3---------|-----------|-----------|-------------
|-----------|--------3/-|-7---------|-7-----------



2nd CHORUS

3rd BRIDGE
Bass rests 7 1/2 measures ("Oooh")

  Cmaj7       D7          Bmin/E     E
|-----------|-----------|----------|-------------
|-----------|-----------|----------|-------------
|-----------|-----------|----------|-------------
|-----------|-----------|----------|-------------

  C6/9        Dsus/9      Amin7/9
                                     h       h
|-----------|-----------|----------|-------------
|-----------|-----------|----------|-------------
|-----------|-----------|----------|-r-----------
|-----------|-----------|----------|---------7b--

  C6/9        Dsus/9      Bmin/E     E
  w           w           H    e e   H        q
|-----------|-----------|----------|-------------
|-----------|-----------|----------|-------------
|-----------|-----------|-7------7-|-------------
|-8------/--|-10------\-|------7---|-0-------/7--

  C   D/G C               B7
  Q   Q   q  +w           h+e e e e   h   h
|-----------|-----------|/8~--------|-------------
|-----------|-----------|-----7-----|-------------
|----10-----|-----------|-------9-7-|-6-----------
|-8-------8-|-8---------|-----------|-----7---\---


3rd CHORUS

Translation:
El cielo me llama (Heaven is calling me)
Caminando en las Nubes (Walking on the clouds)
Dulce beso de libertad (Sweet kiss of liberty)
Nubes de gloria (Clouds of glory))

w,h,q,e,s = whole,half,quarter,eighth,sixteenth
H,Q,E = dotted half, quarter, eighth
+ = tie
/ = slide up
\ = slide down
r = rest
b = bend
rb = release bend
h = hammer

Comments, suggestions, corrections:





Comments


Popular Velasquez Jaci tabs & chords
I Promise Chords
Come As You Are Tabs
I Promise Tabs
I Promise 1 Tabs
Un Lugar Celestial Tabs
Un Lugar Celestial 1 Tabs


Song lyrics



↑ Back to top | Tablatures and chords are parodies/interpretations of the original songs. You may use it for private study, scholarship, research or language learning purposes only
© 2014 AZChords.com Contact us | Privacy policy | DMCA | Add/correct tabs | Request tabs | Top 50 tabs