>
 >
Mowgli 1

Mowgli 1 Guitar Tabs

Veil Of Maya - Mowgli 1 chords, tabs, tablatures, lyrics

Guitar lessons | Add/correct | Request | Top 50 tabs Artists:  A B C D E F G H I J K L M N O P Q R S T U V W X Y Z 0-9

Mowgli 1 Guitar Tabs – Veil Of Maya

CD, Sheet music, Poster

Do you like Mowgli 1? Share with your friends now
TabsTabs v2
                              Veil of Maya
                                 Mowgli
                                  [ID]

----------------------------------------------3-------------------------|
----------------------------------------------3--------------13-13-13---|
--7/14------------15-12-12-14^----12-11---------------8-8-8--12-12-12---|
--5/12------------12-12-12-12^------------5-7---------5-5-5--13-13-13---|
--6/13-0-00-00-0--13-13-13-13^-0--10-9--0-------0-000-6-6-6-------------|
-------0-00-00-0---------------0--0--0--0-------0-000-------------------|


-------------15-----------------------------------------------------------|
---------------15------------------15-15------------13-13-13-13-13-13-----|
-----------------15----------14^---12-12----15-15---12-12-12-12-12-12-----|
-5-5---5-5-5-------13-12-13--------13-13----12-12---13-13-13-13-13-13-----|
-6-6-1-6-6-6--------------------00-------00-------------------------------|
-0-0-1-0-0-0--------------------00-------00-------00----------------------|

----------------------------------------|
----------------------------------------|
-5-7--12-14----15----14-12-14-14-14-14--|
-5-5--12-12----12----12-12-12-12-12-12--|
-6-6--13-13-00-13-00-13-13-13-13-13-13--|
------------00----00--------------------|

This part repeats twice on the last time through
-----------------------------------------|---------------|
------------------------15-15------------|--15^----------|
-12-14-15-15--------------------14-14----|--------14\----|
-12-12-12-12----12-12---12-12------------|--12^----------|this part leads  
-13-13-13-13----10-10-----------12-12----|--------12\----|into the verse &
-------------00-13-13-00------00---------|------0--------|ends the song.

Verse
--------------------------------------------------------------|
--------------------------------------------------------------|
--------------------------------------------------------------|
----------------------------------------4-7-12T-7-4-0-5-------|
--------------------------------------------------------------|
-8--0-1-00-4-5-00-0-1-4-00-7-8-00-1-4-5-----------------------|

---------------------------------------------|
---------------------------------------------|
---------------------------------------------|
---------------------------------------------|
---------------------------------------------|
-0-00000-8--00000-13-12--7\---5-7-8-12T-8-7--|

Breakdown x2
----------------------------------------------------|
----------------------------------------------------|
----------------------------------------------------|
----------------------------------------------------|
-55-555-555-5-5-55-55-55-55-5-5-5-5-55-5-55-555-5---|
-55-555-555-5-5-55-55-55-55-5-5-5-5-55-5-55-555-5---|

-----------------------------------------------------------------|
-----------------------------------------------------------------|
------------------------------------------0-2--------0232---5-7--|
----------------------------------0-1----------------------------|
-----------------------------------------------------------------|
-1-1-1--1-1--1-1-1-1---1-1--1-1-1-----1-1----1-1-1-1-----1-1-----|

-----------------------------------------------6-10-11T-10-6---------|
----------------------------------------------8-------------8--------|
---------------------------------------------7---------------7-------|
-----8-----7----------------10-----7--------8-----------------8------|
---------------9----10----------------5/6-10-------------------10-6--|
-555---555--77---88----5555----555-----------------------------------|

----------------------|
----------------------|
----------------------|
-----1----4-7-4-------|
-5--------------------|
--111-444-------------|

-----------------------------------------------6-10-15T-10-6---------|
----------------------------------------------8-------------8--------|
---------------------------------------------7---------------7-------|
-----8-----7----------------10-----7--------8-----------------8------|
---------------9----10----------------5/6-10-------------------10-6--|
-555---555--77---88----5555----555-----------------------------------|

------------------|
------------------|
------------------|
------1---4-7-4---|
-5----------------|
---111-444--------|

after this you do the intro riffs to end the song.
=D





Comments


Popular Veil Of Maya tabs & chords
All Things Set Aside Tabs
Conquer Tabs
Crawl Back Tabs
Its Not Safe To Swim Today 5 Tabs
Pillars Tabs
Pillars Intro Tabs
The Higler Tabs
Unbreakable Tabs
We Bow In Its Aura 1 Tabs
Wounds Tabs


Song lyrics



↑ Back to top | Tablatures and chords are parodies/interpretations of the original songs. You may use it for private study, scholarship, research or language learning purposes only
© 2014 AZChords.com Contact us | Privacy policy | DMCA | Add/correct tabs | Request tabs | Top 50 tabs