» » »

Veil Of Maya, Its Not Safe To Swim Today-intro Tabs (ver.1)

Artists:  A B C D E F G H I J K L M N O P Q R S T U V W X Y Z # 

Its Not Safe To Swim Today-intro Tabs (ver.1)

Veil Of Maya Tabs
Rating:
1/5 (1 vote)
Its Not Safe To Swim Today-intro lessons Tabs too difficult? Try these video lessons and learn fast
                (Intro)
Im still a little unsure about the tuning and this is my first tab so please
Drop-D... D,A,D,G,B,E

m=mute

The beggining can be sweeped or picked!

|-10-9-----------------------|
|-----10---------------------|
|-------9--------------------|
|--------12-11-12-11---------|
|-------------------12-9-----|
|-----------------------12-11|


|-------------------------------------------------------------------------|
|-------------------------------------------------------------------------|
|-10----------10-----------------------10----------10---------------------|
|-10-00000000-10-00000000-111111111111-10-00000000-10-00000000-4444-3-6-7-|
|-9--00000000-9--00000000-111111111111-9--00000000-9--00000000-xxxx-x-x-x-|
|----00000000----00000000-111111111111----00000000----00000000-2222-1-4-5-|
     mmmmmmmm    mmmmmmmm mmmmmmmmmmmm    mmmmmmmm    mmmmmmmm


|------------------------------------------------------------10-9----|
|-------------------------------------------------------10-7-----10--|
|------------10----------10-----------------------7-11-9-----------11|
|-000-000-00-10-00000000-10-00000000-111111111111--------------------|
|-000-000-00-9--00000000-9--00000000-111111111111--------------------|
|-000-000-00----00000000----00000000-111111111111--------------------|
  mmm mmm mm    mmmmmmmm    mmmmmmmm mmmmmmmmmmmm




so yea thats it, ill do guitar 2 in a little while but not right now, 
and remember email for any questions 
and if you know the right tuning 
cause mines rong please message me. thx again

-jordan
            

comments powered by Disqus
↑ Back to top | Veil Of Maya Tabs for Its Not Safe To Swim Today-intro. Lyrics for acoustic guitar and electric guitar. Tablatures and chords are parodies/interpretations of the original songs. You may use it for private study, scholarship, research or language learning purposes only