» » »

Veil Of Maya, Dark Passenger Tabs (ver.1)

Artists:  A B C D E F G H I J K L M N O P Q R S T U V W X Y Z # 

Dark Passenger Tabs (ver.1)

Veil Of Maya Tabs
 Rating:
4.6/5 (9 votes)
Dark Passenger lessons Tabs too difficult? Try these video lessons and learn fast
                Veil of Maya - Dark Passenger


Again, I am not 100% on this song, a lot of parts are kind of hard to make out (like the 
chords, I dont think they are right)

Intro Dive to open notes with trem bar (left guitar only, first time)
-----------------------------------------------------------|
-----------------------------------------------------------|
-----------------------------------------------------------|
-----------------------------------------------------------|
-000-0-000-0--0--000-0-0-----000-0-0-----000-0-000-0-0-----|
-222-2-222-2--2--222-2-2-0\--222-2-2-0\--222-2-222-2-2-----|

-----------------------------------------------------------|
-----------------------------------------------------------|
-----------------------------------------------------------|
-----------------------------------------------------------|
-000-0-000-0--0--000-0-0-----000-0-0-----000-0-000-0-0-----|
-222-2-222-2--2--222-2-2-0\--222-2-2-0\--222-2-222-2-2-----|

---------------------------------------------------------------------------|
---------------------------------------------------------------------------|
---------------------------------------------------------------------------|
---------------------------------------------------------------------------|
-000-0-000-0--0--000-0-0-----000-0-0-----000-0-000-0-0--000-0-0--000-0-0---|
-222-2-222-2--2--222-2-2-0\--222-2-2-0\--222-2-222-2-2--222-2-2--111-1-1---|

I AM IN CONTROL

----------------------------------------------------------------------|
----------------------------------------------------------------------|
----------------------------------------------------------------------|
----------------------------------------------------------------------|
-000-0-000-0--0---000-0-0-----000-0-0-----000-0-000-0-000-0-000-0--0--|
-222-2-222-2--2---222-2-2-0\--222-2-2-0\--222-2-222-2-222-2-222-2--2--|

----------------------------------------------------------|
----------------------------------------------------------|
----------------------------------------------------------|
----------------------------------------------------------|
-000-0-0-000-000-0-0------000-0-000-0-000-0-0--000-0-0----|
-222-2-2-222-222-2-2-0\---222-2-222-2-222-2-2--111-1-1----|

Panning part.
----------------------------------------------|
----------------------------------------------|
----------------------------------------------|
----------------------------------------------|
-000-0-000-0-0-----0-0----0-0----0------------|
-222-2-222-2-2--0\-2-2-0\-2-2-0\-2------------|
                   R L R  L R L  R

-------------------------------------------------------------------------|
-------------------------------------------------------------------------|
-------------------------------------------------------------------------|
-------------------------------------------------------------------------|
-000-0-000-0--0--000-0-0-----000-0-0-----000-0-000-0-000-0-0---000-0-0---|
-222-2-222-2--2--222-2-2-0\--222-2-2-0\--222-2-222-2-222-2-2---111-1-1---|


Verse One time left guitar only.
----------------------------------------------------------------|
----------------------------------------------------------------|
----------------------------------------------------------------|
-------5------------------------------5---5---------------------|
---------------5---5-------6------------------------------------|
-1-0-1---1-0-1---1---1-1/5---5--1-0-1---1---1--5\0-0--00000-----|

-----------------------------------------------------------------|
-----------------------------------------------------------------|
-----------------------------------------------------------------|
-----------------------------------------------------------------|
-------5--------5---5-------6-----------0-1-0--------------------|
-1-0-1----1-0-1---1---1-1/5---5-1-0-1-5-------5-1-0-1--00000-----|


*= natural harmonic
------------------------------------------------------------|
------------------------------------------------------------|
------5*-----5*------------5*----5*---5*--------------------|
--------------------5*------------------------7--7--7-787---|
------------------------------------------------------------|
-1--1---1--1---11111--1--1---1--1---1--1----4--4--4--4------|

-------------------------------------------------------------|
-------------------------------------------------------------|
--------------------5*---------------------------------------|
------5*-----5*--------------5*------5*-5*---12-11-------7---|
---------------------------------------------9--8--------4---|
-1--1---1--1---11111---1--1---1--1---1--1----9--8--00000-4---|

------------------------------------------------------------|
------------------------------------------------------------|
------5*-----5*------------5*----5*---5*--------------------|
--------------------5*------------------------7--7--7-787---|
------------------------------------------------------------|
-1--1---1--1---11111--1--1---1--1---1--1----4--4--4--4------|

---------------------------------------------------------------------|
---------------------------------------------------------------------|
--------------------5*-----------------------------------------------|
------5*-----5*--------------5*------5*-5*---12-11-------7-8-7-4-7---|
---------------------------------------------9--8--------4-5-4-1-4---|
-1--1---1--1---11111---1--1---1--1---1--1----9--8--00000-4-5-4-1-4---|


Awesome chorus
------------------------------------------------------------------|
------------------------------------------------------------------|
-----------------------------------------------------5*----7*-----|
------5-----------------------1---------------------5*-5*-7*------|
---5--------------1-----------------------1-565-1--5*----7*-------|
-0---1--1---0-1-5---5-1-0-1-5---5-1-0--1-5------------------------|

----------------------------------------------------|
-----------------------------------------10-11------|
----------------------------------------------------|
-------------------1---------------------7--8-------|
-------1--------------------------------------------|
-0-1-5---5-1-0-1-5---5-1-5\--000-000-000--------0---|
                                             open on second time only.

Bridge
---------------10----11------11------10----------10-----|
-8---10---11-----8-8---10--10--10--10--10------10--10---|
--0-7--7-7--7-7---7------12------12------12--12---------|
---8----8----8-----------------------------12-----------|
--------------------------------------------------------|
--------------------------------------------------------|

Break
----------------------------------------------|
----------------------------------------------|
------------------------3-7-------------------|
-----------1-5--------------------------------|
----------------------------------------------|
-1-0-1-1-0-----1-0-1-1-0----------------------|

----------------------------------------------------|
----------------------------------------------------|
-------------------------7-----------5-----2--------|
-------------5--------------------------------------|
----------------------------------------------------|
-1-0-1-1-0-1---1-0-1-0-1---1-0-1-0-1---1-0---1-0----|

---------------------------------------------------------|
---------------------------------------------------------|
---------------------------3-7-----------2----3----------|
-------------1-5-----------------------------------------|
---------------------------------------------------------|
-0-1-0-1-0-1-----1-0-1-0-1-----1-0-1-0-1---1-0--1-0------|


Outro repeat chugs twice.
-----------------------------------------------------------|
-----------------------------------------------------------|
-----------------------------------------------------------|
-----------------------------------------------------------|
-555-5-5-555-5555-555-5-555-5555-5555-5-5-5-555-5555-555---|
-555-5-5-555-5555-555-5-555-5555-5555-5-5-5-555-5555-555---|

-----------------------------------------------------------|
-----------------------------------------------------------|
-----------------------------------------------------------|
-----------------------------------------------------------|
-1-1-1-111-1111-111-1-1-111-1111-111-1-111-1111-111-1-1----|
-1-1-1-111-1111-111-1-1-111-1111-111-1-111-1111-111-1-1----|

Lead part in outro
---------------10----11------11------10----------10-----|
-8---10---11-----8-8---10--10--10--10--10------10--10---|
--0-7--7-7--7-7---7------12------12------12--12---------|
---8----8----8-----------------------------12-----------|
--------------------------------------------------------|
--------------------------------------------------------|
            
Submit corrections

comments powered by Disqus
↑ Back to top | Veil Of Maya Tabs for Dark Passenger. Lyrics for acoustic guitar and electric guitar. Tablatures and chords are parodies/interpretations of the original songs. You may use it for private study, scholarship, research or language learning purposes only