>
 >
All Things Set Aside

All Things Set Aside Guitar Tabs

Veil Of Maya - All Things Set Aside chords, tabs, tablatures, lyrics

Guitar lessons | Add/correct | Request | Top 50 tabs Artists:  A B C D E F G H I J K L M N O P Q R S T U V W X Y Z 0-9

All Things Set Aside Guitar Tabs – Veil Of Maya

CD, Sheet music, Poster

Do you like All Things Set Aside? Share with your friends now
Tabs
"All Things Set Aside"

dropped b (b, f#, b, e, g#, c#)


---------------------------------------------------|
---------------------------------------------------|
---------------------------------------------------|
-0------------------------0------------------------|
-0---5454~~0-555555000000-0---5454~~0-555555888555-|
-0sus--------888888333333-0sus--------888888-------|


--------------------------------------------------------|
-----------------------10>11<10-------------------------|
-------------------------------10-----------------------|
7--------7---12-10-8-12----------7--------77------------|
-45757875-------------------------45757875--45754-45754-|
----------00-00-00-------------------------------5------|

i don't know how to transcribe the breakdown, learn it yourself

-----
-----
-----
-----
32-32
32-32

--------------------------|
--------------------------|
--------------------------|
----2>3-------------------|
320-4>5------0--0--0--5-5-|
320----0-000-10-10-10-8-8-|


----------------------------------------------------------------------------------------|
----------------------------------------------------------------------------------------|
7-7-7-7-10-10-10-10-17-17-17-17-14-14-14-14-7-7-7-7-10-10-10-10-17-17-17-17-19-19-19-19-|
----------------------------------------------------------------------------------------|
5-5-5-5-7--7--7--7--15-15-15-15-12-12-12-12-5-5-5-5-7--7--7--7--15-15-15-15-17-17-17-17-|
----------------------------------------------------------------------------------------|

----8---5----------------------------------------------------------------------8--5>0-|
--56-65----5h65-----------------------------------------------------------10-8--65----|
-------7-75----5--5>12--------------------------------------------------------7-------|
-----------------3-----10-------------15-14-----------------15-14---------------------|
58--------------1--------8----------12------15-12---------12------15-12---------------|
--------------------------12-8-12-15--------------15-12-15--------------15------------|


----------------------------5-----------------5h8-----------------------5------------------|
-------------------------5h6------------5h6------65h6---5h6----------5h6-------------------|
6>9-99-99-99-99-6>9-99-99------6>9-99-99---6h7-------6h7----6>9-99-99-----8888-12-12-12-12-|
--7-77-77-77-77---7-77-77--------7-77-77----------------------7-77-77-----5555-8--8--8--8--|
4>8-88-88-88-88-4>8-88-88------4>8-88-88--------------------4>8-88-88-----5555-8--8--8--8--|
-------------------------------------------------------------------------------------------|

--------------------------------------------------------------|
--------------------------------------------------------------|
12>14-99-10>9-7>5-12>14------------9-10-12>14--9h109----------|
------77----------------------10-12-----------------10--------|
10>12-88-8->7-5>3-10>12--10-12----------10>12---------12-8----|
-----------------------00--------------------00---------------|

---------------------------------------------------------|
---------------------------------------------------------|
12>14-99-7>5-10>9-12>99-222555-12>99--14-14-----12>99----|
------77----------------000333---------------------------|
10>12-88-5>3-8->7-10>77--------10>77--13-13-----10>77----|
-------------------------------------0--0--0000------0---|

-----------------------------------------------------------------|
-----------------------------------------------------------------|
12>14------------9-10-12>14--9h109-------12>14-99-7>5-10>9-12>99-|
------------10-12-----------------10-----------77----------------|
10>12--10-12----------10>12---------12-8-10>12-88-5>3-8->7-10>77-|
-----00--------------------00------------------------------------|

i don't know how to transcribe the breakdown, learn it yourself

---------------------------------------------------|
---------------------------------------------------|
99-99-9------------------99-99-9-------------------|
-----------32------32---------------75------75-----|
88-88-8---0--30---0--30--88-88-8---0--73---0--73---|
--------03-----303-----3---------03-----703-----7--|


5---10----12-13-17-13-----------------------------------------------|
-6----10-------------15--------8>10-10>11-14>15---------------------|
--7-----10-------------14-----------------------12>14-10-10---------|
-------------------------15-12-5>7--7->8--11>12---------------------|
------------------------------------------------10>12-8--8----------|
------------------------------------------------------------0-0-0-0-|

5---10----12-13-17-13---------------------------------------|
-6----10-------------15--------8>10-10>11-14>15-------------|
--7-----10-------------14-----------------------12>14-10-10-|
-------------------------15-12-5>7--7->8--11>12-------------|
------------------------------------------------10>12-8--8--|
------------------------------------------------------------|

------------------------------------------13h17------|
---------------------------------------15^-----------|
---------14--14--14-14-14-14--------14^---------9sus-|
------------------------------12h15^------------7sus-|
---------13--13--13-13-13-13--------------------8sus-|
-0-0-0-0----------------------------------------0sus-|





Comments


Popular Veil Of Maya tabs & chords
Divide Paths Intro Tabs
It's Not Safe To Swim Today Tabs
It's Not Safe To Swim Today 1 Tabs
It's Torn Away Tabs
Its Not Safe To Swim Today 4 Tabs
Mowgli Tabs
Namaste Intro Tabs
Pillars Tabs
The Glass Slide Tabs
Unbreakable Tabs


Song lyrics



↑ Back to top | Tablatures and chords are parodies/interpretations of the original songs. You may use it for private study, scholarship, research or language learning purposes only
© 2014 AZChords.com Contact us | Privacy policy | DMCA | Add/correct tabs | Request tabs | Top 50 tabs