>
 >
We Are All Dying

We Are All Dying Guitar Tabs

Vehemence - We Are All Dying chords, tabs, tablatures, lyrics

Guitar lessons | Add/correct | Request | Top 50 tabs Artists:  A B C D E F G H I J K L M N O P Q R S T U V W X Y Z 0-9

We Are All Dying Guitar Tabs – Vehemence

CD, Sheet music, Poster

Do you like We Are All Dying? Share with your friends now
Tabs
Vehemence - We Are All Dying
Helping The World To See (2004)
GP To Text By: ruker
Tuning: 2.5 Steps down BEADF#B

--------------------------
Key:
--------------------------
.     Palm Mute
~     Vibrato
/     Slide Up
\     Slide Down
()    Sustained Note
h     Hammer-On
p     Pull-Off
^     Bend Up
AH    Artificial Harmonic
|-3-| Triplet
--------------------------

Note: Open Spaces Are Rests


Right: Above
Left: Below


Tempo: 200 bpm

Riff 1 (0:00)
 4/4
||----------------|-----------------|-----------------|--------------|
||*---------------|-----------------|-----------------|--------------|
||----------------|-----------------|---5--4-5-4-2420-|-2---------4--|
||----5--4-5------|-----------------|-------------hpp-|----55424-----|
||*---------------|-----555-666-----|-----------------|--------------|
||--0---------0-0-|-444---------777-|-0---------------|--------------|
|   .         . .   ... ... ... ...   .    . . .           ....      |
|                                                                    |
|                                                                    |
||----------------|-----------------|-----------------|--------------|
||*---------------|-----------------|-----------------|--------------|
||----------------|-----------------|---5--4-5-4-2420-|-2---------4--|
||----5--4-5------|-----------------|-------------hpp-|----55424-----|
||*---------------|-----555-666-----|-----------------|--------------|
||--0---------0-0-|-444---------777-|-0---------------|--------------|
    .         . .   ... ... ... ...   .    . . .           .... 

                  |-3-| |-3-| |-3-| |-3-|
|---------------|-------------------------|-----------------|------------------||
|---------------|-3-1---1-----------------|-----------------|-----------------*||
|---------------|-----4---4-2-4-2-0-2-0---|-----------------|-------------3----||
|---5--4-5-4-2--|-----------------------4-|-----5-------5---|-----4---1-1-1----||
|---------------|-------------------------|-3-3-3-3-3-3-3-0-|-2-2-2-2-1-1-1---*||
|-0-------------|-------------------------|-----------------|---------------3--||
| .    . . .      . . . . . . . . . . . .   . .   . . .   .   . .   . . .       |
|                                                                               |
|                 |-3-| |-3-| |-3-| |-3-|                                       |
|---------------|-------------------------|-----------------|------------------||
|---------------|-------------------------|-----------------|-----------------*||
|---------------|-4-2---2-----------------|-----------------|-------------3----||
|---5--4-5-4-2--|-----5---5-4-5-4-2-4-2---|-----5-------5---|-----4---1-1-1----||
|---------------|-----------------------5-|-3-3-3-3-3-3-3-0-|-2-2-2-2-1-1-1---*||
|-0-------------|-------------------------|-----------------|---------------3--||
  .    . . .      . . . . . .   . . . . .   . .   . . .   .   . .   . . .


Riff 2 (0:18)
 3/4
||------------|-------------|------------|------------|------------|------------|
||------------|-------------|------------|------------|------------|------------|
||------------|-------------|------------|------------|------------|------------|
||------    --|-----4-2-4-\-|------    --|-----5-4-5~-|------    --|-----7-5-7~-|
||-2-2--------|-2-2---------|-2-2--------|-2-2--------|-2-2--------|-2-2--------|
||-0-0--------|-0-0---------|-0-0--------|-0-0--------|-0-0--------|-0-0--------|
|  . .          . .           . .          . .          . .          . .        |
|                                                                               |
|                                                                               |
||------------|-------------|------------|------------|------------|------------|
||------------|-------------|------------|------------|------------|------------|
||------------|-------------|-----2-0-2~-|------------|-----4-2-4~-|------------|
||-----5-4-5~-|------    ---|------------|------    --|------------|------    --|
||-2-2--------|-2-2---------|-2-2--------|-2-2--------|-2-2--------|-2-2--------|
||-0-0--------|-0-0---------|-0-0--------|-0-0--------|-0-0--------|-0-0--------|
   . .          . .           . .          . .          . .          . .

 4/4                      3/4
  |-3-| |-3-| |-3-| |-3-|
|-------------------------|------------|------------|------------|------------|------------|
|-5-----------------------|------------|------------|------------|------------|------------|
|---7-5-7-5-4-5-4---4-----|-----4-2-4~-|-----2-0-2~-|-----5-4-5~-|-----4-2-4~-|-----7-5-7~-|
|-----------------7---7-5-|------------|------------|------------|------------|------------|
|-------------------------|-2-2--------|-2-2--------|-2-2--------|-2-2--------|-2-2--------|
|-------------------------|-0-0--------|-0-0--------|-0-0--------|-0-0--------|-0-0--------|
| . . . . . . . . . . . .   . .          . .          . .          . .          . .        |
|                                                                                          |
| |-3-| |-3-| |-3-| |-3-|                                                                  |
|-------------------------|------------|------------|------------|------------|------------|
|-------------------------|------------|------------|------------|------------|------------|
|-5p4p2h4p2---2-----------|------------|------------|-----2-0-2~-|------------|-----4-2-4~-|
|-----------5---5-4-5-4-2-|-----5-4-5~-|-----4-2-4~-|------------|-----5-4-5~-|------------|
|-------------------------|-2-2--------|-2-2--------|-2-2--------|-2-2--------|-2-2--------|
|-------------------------|-0-0--------|-0-0--------|-0-0--------|-0-0--------|-0-0--------|
                . . . . .   . .          . .          . .          . .          . .

             4/4
               |-3-| |-3-| |-3-| |-3-|
|------------|-------------------------|-----------------|-----------------|
|------------|-5-----------------------|-----------------|-----------------|
|-----5-4-5~-|---7-5-7-5-4-5-4---4-----|-----------------|-----------------|
|------------|-----------------7---7-5-|-----5-------5---|-----5-------5---|
|-2-2--------|-------------------------|-3-3-3-3-3-3-3-3-|-3-3-3-3-3-3-3-0-|
|-0-0--------|-------------------------|-----------------|-----------------|
| . .            . .         . . . . .   . .   . . .   .   . .   . . .   . |
|                                                                          |
|              |-3-| |-3-| |-3-| |-3-|                                     |
|------------|-------------------------|-----------------|-----------------|
|------------|-------------------------|-----------------|-----------------|
|-----2-0-2~-|-5-4-2-4-2---2-----------|-----------------|-----------------|
|------------|-----------5---5-4-5-4-2-|-----5-------5---|-----5-------5---|
|-2-2--------|-------------------------|-3-3-3-3-3-3-3-3-|-3-3-3-3-3-3-3-0-|
|-0-0--------|-------------------------|-----------------|-----------------|
  . .          . . .   . .   . . . . .   . .   . . .   .   . .   . . .   .


|-----------------|-----------------||
|-----------------|-----------------||
|-----------------|-----3-------7---||
|-----4-------4---|-1-1-1-1-5-5-5-5-||
|-2-2-2-2-2-2-2-2-|-1-1-1-1-5-5-5-5-||
|-----------------|-----------------||
| . .   . . .   .   . .   . . .   .  |
|                                    |
|                                    |
|-----------------|-----------------||
|-----------------|-----------------||
|-----------------|-----3-------7---||
|-----4-------4---|-1-1-1-1-5-5-5-5-||
|-2-2-2-2-2-2-2-2-|-1-1-1-1-5-5-5-5-||
|-----------------|-----------------||
  . .   . . .   .   . .   . . .   .


Riff 1 (0:37)
||----------------|-----------------|-----------------|--------------|
||*---------------|-----------------|-----------------|--------------|
||----------------|-----------------|---5--4-5-4-2420-|-2---------4--|
||----5--4-5------|-----------------|-------------hpp-|----55424-----|
||*---------------|-----555-666-----|-----------------|--------------|
||--0---------0-0-|-444---------777-|-0---------------|--------------|
|   .         . .   ... ... ... ...   .    . . .           ....      |
|                                                                    |
|                                                                    |
||----------------|-----------------|-----------------|--------------|
||*---------------|-----------------|-----------------|--------------|
||----------------|-----------------|---5--4-5-4-2420-|-2---------4--|
||----5--4-5------|-----------------|-------------hpp-|----55424-----|
||*---------------|-----555-666-----|-----------------|--------------|
||--0---------0-0-|-444---------777-|-0---------------|--------------|
    .         . .   ... ... ... ...   .    . . .           .... 

                  |-3-| |-3-| |-3-| |-3-|
|---------------|-------------------------|-----------------|------------------||
|---------------|-3-1---1-----------------|-----------------|-----------------*||
|---------------|-----4---4-2-4-2-0-2-0---|-----------------|-------------3----||
|---5--4-5-4-2--|-----------------------4-|-----5-------5---|-----4---1-1-1----||
|---------------|-------------------------|-3-3-3-3-3-3-3-0-|-2-2-2-2-1-1-1---*||
|-0-------------|-------------------------|-----------------|---------------3--||
| .    . . .      . . . . . . . . . . . .   . .   . . .   .   . .   . . .       |
|                                                                               |
|                 |-3-| |-3-| |-3-| |-3-|                                       |
|---------------|-------------------------|-----------------|------------------||
|---------------|-------------------------|-----------------|-----------------*||
|---------------|-4-2---2-----------------|-----------------|-------------3----||
|---5--4-5-4-2--|-----5---5-4-5-4-2-4-2---|-----5-------5---|-----4---1-1-1----||
|---------------|-----------------------5-|-3-3-3-3-3-3-3-0-|-2-2-2-2-1-1-1---*||
|-0-------------|-------------------------|-----------------|---------------3--||
  .    . . .      . . . . . .   . . . . .   . .   . . .   .   . .   . . .


Riff 2 (0:56)
 3/4
||------------|-------------|------------|------------|------------|------------|
||------------|-------------|------------|------------|------------|------------|
||------------|-------------|------------|------------|------------|------------|
||------    --|-----4-2-4-\-|------    --|-----5-4-5~-|------    --|-----7-5-7~-|
||-2-2--------|-2-2---------|-2-2--------|-2-2--------|-2-2--------|-2-2--------|
||-0-0--------|-0-0---------|-0-0--------|-0-0--------|-0-0--------|-0-0--------|
|  . .          . .           . .          . .          . .          . .        |
|                                                                               |
|                                                                               |
||------------|-------------|------------|------------|------------|------------|
||------------|-------------|------------|------------|------------|------------|
||------------|-------------|-----2-0-2~-|------------|-----4-2-4~-|------------|
||-----5-4-5~-|------    ---|------------|------    --|------------|------    --|
||-2-2--------|-2-2---------|-2-2--------|-2-2--------|-2-2--------|-2-2--------|
||-0-0--------|-0-0---------|-0-0--------|-0-0--------|-0-0--------|-0-0--------|
   . .          . .           . .          . .          . .          . .

 4/4                      3/4
  |-3-| |-3-| |-3-| |-3-|
|-------------------------|------------|------------|------------|------------|------------|
|-5-----------------------|------------|------------|------------|------------|------------|
|---7-5-7-5-4-5-4---4-----|-----4-2-4~-|-----2-0-2~-|-----5-4-5~-|-----4-2-4~-|-----7-5-7~-|
|-----------------7---7-5-|------------|------------|------------|------------|------------|
|-------------------------|-2-2--------|-2-2--------|-2-2--------|-2-2--------|-2-2--------|
|-------------------------|-0-0--------|-0-0--------|-0-0--------|-0-0--------|-0-0--------|
| . . . . . . . . . . . .   . .          . .          . .          . .          . .        |
|                                                                                          |
| |-3-| |-3-| |-3-| |-3-|                                                                  |
|-------------------------|------------|------------|------------|------------|------------|
|-------------------------|------------|------------|------------|------------|------------|
|-5p4p2h4p2---2-----------|------------|------------|-----2-0-2~-|------------|-----4-2-4~-|
|-----------5---5-4-5-4-2-|-----5-4-5~-|-----4-2-4~-|------------|-----5-4-5~-|------------|
|-------------------------|-2-2--------|-2-2--------|-2-2--------|-2-2--------|-2-2--------|
|-------------------------|-0-0--------|-0-0--------|-0-0--------|-0-0--------|-0-0--------|
                . . . . .   . .          . .          . .          . .          . .

             4/4
               |-3-| |-3-| |-3-| |-3-|
|------------|-------------------------|-----------------|-----------------|
|------------|-5-----------------------|-----------------|-----------------|
|-----5-4-5~-|---7-5-7-5-4-5-4---4-----|-----------------|-----------------|
|------------|-----------------7---7-5-|-----5-------5---|-----5-------5---|
|-2-2--------|-------------------------|-3-3-3-3-3-3-3-3-|-3-3-3-3-3-3-3-0-|
|-0-0--------|-------------------------|-----------------|-----------------|
| . .            . .         . . . . .   . .   . . .   .   . .   . . .   . |
|                                                                          |
|              |-3-| |-3-| |-3-| |-3-|                                     |
|------------|-------------------------|-----------------|-----------------|
|------------|-------------------------|-----------------|-----------------|
|-----2-0-2~-|-5-4-2-4-2---2-----------|-----------------|-----------------|
|------------|-----------5---5-4-5-4-2-|-----5-------5---|-----5-------5---|
|-2-2--------|-------------------------|-3-3-3-3-3-3-3-3-|-3-3-3-3-3-3-3-0-|
|-0-0--------|-------------------------|-----------------|-----------------|
  . .          . . .   . .   . . . . .   . .   . . .   .   . .   . . .   .


|-----------------|-----------------||
|-----------------|-----------------||
|-----------------|-----3-------7---||
|-----4-------4---|-1-1-1-1-5-5-5-5-||
|-2-2-2-2-2-2-2-2-|-1-1-1-1-5-5-5-5-||
|-----------------|-----------------||
| . .   . . .   .   . .   . . .   .  |
|                                    |
|                                    |
|-----------------|-----------------||
|-----------------|-----------------||
|-----------------|-----3-------7---||
|-----4-------4---|-1-1-1-1-5-5-5-5-||
|-2-2-2-2-2-2-2-2-|-1-1-1-1-5-5-5-5-||
|-----------------|-----------------||
  . .   . . .   .   . .   . . .   .


Riff 3 (1:14)                                             ____________________ 
    |--3--|                                              |1,3                 |
||-------------------|-----------------|-----------------|--------------------|
||*------------------|-----------------|-----------------|-------------------*|
||-------------------|-7-7-7-7-9-9-9-9-|-9-9-9-9-9-9-9-9-|-7-7-7-7-111112-12--|
||--------4--9--(9)\-|-----------------|-----------------|--------------------|
||*-2--5--2--7--(9)\-|-5-5-5-5-7-7-7-7-|-7-7-7-7-7-7-7-7-|-5-5-5-5-9-9-10-10-*|
||--0--3-------------|-----------------|-----------------|--------------------|
|                                                                             |
|                                                                             |
|   |--3--|                                                                   |
||-------------------|-----------------|-----------------|--------------------|
||*------------------|-----------------|-----------------|-------------------*|
||-------------------|-----------------|-9-9-9-9-9-9-9-9-|-7-7-7-7-111112-12--|
||--------4--9--(9)\-|-----------------|-----------------|--------------------|
||*-2--5--2--7--(9)\-|-5-5-5-5-7-7-7-7-|-7-7-7-7-7-7-7-7-|-5-5-5-5-9-9-10-10-*|
||--0--3-------------|-3-3-3-3-5-5-5-5-|-----------------|--------------------|

 _________________                   
|2                |
|-----------------|----------------||
|----------------*|----------------||
|-----------------|----------------||
|-----------------|----------------||
|-9---5-7-9-7-5--*|-9-7-5-7-9-7-5--||
|-7-0-3-5-7-5-3---|-7-5-3-5-7-5-3--||
|   . . . . .         . . . . .     |
|                                   |
|                                   |
|-----------------|----------------||
|----------------*|----------------||
|-------------AH--|----------------||
|-----------------|---        -----||
|-9---5-7-9-7-4^-*|-9-----------5--||
|-7-0-3-5-7-5-----|-7-----------3--||
    . . . . .


Riff 4 (1:33)
 3/4                                                   4/4
||------------|------------|------------|--------------|-----------------|------------------|
||------------|------------|------------|--------------|-----------------|------------------|
||------------|------------|------------|--------------|-9-9-9-9-9-9-9-9-|-8-8-8-8-11111212-|
||-    -------|-    -------|-    -------|-   -----   --|-----------------|------------------|
||------222---|------222---|------222---|-----222------|-7-7-7-7-7-7-7-7-|-6-6-6-6-9-9-1010-|
||------000---|------000---|------000---|-----000------|-----------------|------------------|
|       ...          ...          ...         ...                                           |
|                                                                                           |
|                                                                                           |
||------------|------------|------------|--------------|-----------------|------------------|
||------------|------------|------------|--------------|-----------------|------------------|
||------------|------------|------------|--------------|-5-5-5-5-5-5-5-5-|-4-4-4-4-7-7-8-8--|
||-----    ---|-----    ---|-----    ---|-----   ------|-----------------|------------------|
||-222--------|-222--------|-222--------|-222-----222--|-3-3-3-3-3-3-3-3-|-2-2-2-2-5-5-6-6--|
||-000--------|-000--------|-000--------|-000-----000--|-----------------|------------------|
   ...          ...          ...          ...     ...
                                  ______________________________________
                                 |1                                     |
|----------------|---------------|------------------|-------------------|
|*---------------|---------------|------------------|------------------*|
|----------------|---------------|-1212121212121212-|-1111111114141616--|
|------ ---- ----|- ---- --------|------------------|-------------------|
|*-222--222--222-|--222--444-555-|-1010101010101010-|-9-9-9-9-12121414-*|
|--000--000--000-|--000--222-333-|------------------|-------------------|
|  ...  ...  ...    ...  ... ...                                        |
|                                                                       |
|                                                                       |
|----------------|---------------|------------------|-------------------|
|*---------------|---------------|------------------|------------------*|
|----------------|---------------|-9-9-9-9-9-9-9-9--|-8-8-8-8-11111212--|
|------ ---- ----|- ---- --------|------------------|-------------------|
|*-222--222--222-|--222--444-555-|-7-7-7-7-7-7-7-7--|-6-6-6-6-9-9-1010-*|
|--000--000--000-|--000--222-333-|------------------|-------------------|
   ...  ...  ...    ...  ... ...
 ______________________________________ _____________________________________
|2                                     |3                                    |
|------------------|-------------------|------------------|------------------||
|------------------|------------------*|------------------|------------------||
|-9-9-9-9-9-9-9-9--|-8-8-8-8-11111212--|-1212121212121212-|-1111111114141616-||
|------------------|-------------------|------------------|------------------||
|-7-7-7-7-7-7-7-7--|-6-6-6-6-9-9-1010-*|-1010101010101010-|-9-9-9-9-12121414-||
|------------------|-------------------|------------------|------------------||
|                                                                             |
|                                                                             |
|                                                                             |
|------------------|-------------------|------------------|------------------||
|------------------|------------------*|------------------|------------------||
|-5-5-5-5-5-5-5-5--|-4-4-4-4-7-7-8-8---|-9-9-9-9-9-9-9-9--|-8-8-8-8-11111212-||
|------------------|-------------------|------------------|------------------||
|-3-3-3-3-3-3-3-3--|-2-2-2-2-5-5-6-6--*|-7-7-7-7-7-7-7-7--|-6-6-6-6-9-9-1010-||
|------------------|-------------------|------------------|------------------||



Riff 5 (1:54)
||------------------|------------------|-----------------|------------------|
||*-----------------|-1212121212121212-|-----------------|------------------|
||--9-9-9-9-9-9-9-9-|------------------|-9-9-9-9-9-9-9-9-|-7-7-7-7-11111212-|
||------------------|-9-9-9-9-9-9-9-9--|-----------------|------------------|
||*-7-7-7-7-7-7-7-7-|------------------|-7-7-7-7-7-7-7-7-|-5-5-5-5-9-9-1010-|
||------------------|------------------|-----------------|------------------|
|                                                                           |
|                                                                           |
|                                                                           |
||------------------|------------------|-----------------|------------------|
||*-----------------|------------------|-----------------|------------------|
||--9-9-9-9-9-9-9-9-|------------------|-9-9-9-9-9-9-9-9-|-7-7-7-7-11111212-|
||------------------|-9-9-9-9-9-9-9-9--|-----------------|------------------|
||*-7-7-7-7-7-7-7-7-|------------------|-7-7-7-7-7-7-7-7-|-5-5-5-5-9-9-1010-|
||------------------|-7-7-7-7-7-7-7-7--|-----------------|------------------|


                                                                        3x
|-----------------|------------------|-----------------|------------------||
|-----------------|-1212121212121212-|-----------------|-----------------*||
|-9-9-9-9-9-9-9-9-|------------------|-9-9-9-9-9-9-9-9-|------------------||
|-----------------|-9-9-9-9-9-9-9-9--|-----------------|------------------||
|-7-7-7-7-7-7-7-7-|------------------|-7-7-7-7-7-7-7-7-|-9---5-7-9-7-5/7-*||
|-----------------|------------------|-----------------|-7-0-3-5-7-5-3/5--||
|                                                          . . . . .       |
|                                                                          |
|                                                                          |
|-----------------|------------------|-----------------|------------------||
|-----------------|------------------|-----------------|-----------------*||
|-9-9-9-9-9-9-9-9-|------------------|-9-9-9-9-9-9-9-9-|------------------||
|-----------------|-9-9-9-9-9-9-9-9--|-----------------|------------------||
|-7-7-7-7-7-7-7-7-|------------------|-7-7-7-7-7-7-7-7-|-9---5-7-9-7-5/7-*||
|-----------------|-7-7-7-7-7-7-7-7--|-----------------|-7-0-3-5-7-5-3/5--||
                                                           . . . . .


Riff 6 (2:13)
 3/4
||--------------|-------------|-------------|--------------|
||*-------------|-------------|-------------|-------------*|
||--------------|-------------|-------------|--------------|
||--7-----------|-7-----------|-6-----------|-6------------|
||*-5-----------|-5-----------|-4-----------|-4-----------*|
||--5-6-3-0-3-6-|-5-6-3-0-3-6-|-4-6-3-0-3-6-|-4-3-2-0-2-3--|
|     . . . . .     . . . . .     . . . . .     . . . . .  |
|                                                          |
|                                                          |
||--------------|-------------|-------------|--------------|
||*-------------|-------------|-------------|-------------*|
||--------------|-------------|-------------|--------------|
||--7-----------|-7-----------|-6-----------|-6------------|
||*-5-----------|-5-----------|-4-----------|-4-----------*|
||--5-6-3-0-3-6-|-5-6-3-0-3-6-|-4-6-3-0-3-6-|-4-3-2-0-2-3--|
      . . . . .     . . . . .     . . . . .     . . . . .

                                          1/4    4/4             
|-------------|-------------|-------------|------|-----------------||
|-------------|-------------|-------------|------|-----------------||
|-------------|-------------|-------------|------|-----------------||
|-7-----------|-7-----------|-6-----------|-    -|-5---------------||
|-5-----------|-5-----------|-4-----------|------|-3---------------||
|-5-6-3-0-3-6-|-5-6-3-0-3-6-|-4-6-3-0-3-6-|------|-3-6-3-0-2-3-----||
|   . . . . .     . . . . .     . . . . .            . . . . .      |
|                                                                   |
|                                                                   |
|-------------|-------------|-------------|------|-----------------||
|-------------|-------------|-------------|------|-----------------||
|-------------|-------------|-------------|------|-----------------||
|-7-----------|-7-----------|-6-----------|-    -|-5---------------||
|-5-----------|-5-----------|-4-----------|------|-3---------------||
|-5-6-3-0-3-6-|-5-6-3-0-3-6-|-4-6-3-0-3-6-|------|-3-6-3-0-2-3-----||
    . . . . .     . . . . .     . . . . .            . . . . .


Riff 5 (2:28)
||------------------|------------------|-----------------|------------------|
||*-----------------|-1212121212121212-|-----------------|------------------|
||--9-9-9-9-9-9-9-9-|------------------|-9-9-9-9-9-9-9-9-|-7-7-7-7-11111212-|
||------------------|-9-9-9-9-9-9-9-9--|-----------------|------------------|
||*-7-7-7-7-7-7-7-7-|------------------|-7-7-7-7-7-7-7-7-|-5-5-5-5-9-9-1010-|
||------------------|------------------|-----------------|------------------|
|                                                                           |
|                                                                           |
|                                                                           |
||------------------|------------------|-----------------|------------------|
||*-----------------|------------------|-----------------|------------------|
||--9-9-9-9-9-9-9-9-|------------------|-9-9-9-9-9-9-9-9-|-7-7-7-7-11111212-|
||------------------|-9-9-9-9-9-9-9-9--|-----------------|------------------|
||*-7-7-7-7-7-7-7-7-|------------------|-7-7-7-7-7-7-7-7-|-5-5-5-5-9-9-1010-|
||------------------|-7-7-7-7-7-7-7-7--|-----------------|------------------|

                                                        __________________ _________________
                                                       |1                 |2                |
|-----------------|------------------|-----------------|------------------|-----------------||
|-----------------|-1212121212121212-|-----------------|-----------------*|-----------------||
|-9-9-9-9-9-9-9-9-|------------------|-9-9-9-9-9-9-9-9-|------------------|-----------------||
|-----------------|-9-9-9-9-9-9-9-9--|-----------------|------------------|-----------------||
|-7-7-7-7-7-7-7-7-|------------------|-7-7-7-7-7-7-7-7-|-9---5-7-9-7-5/7-*|-9-7-5-7-9-7-5/7-||
|-----------------|------------------|-----------------|-7-0-3-5-7-5-3/5--|-7-5-3-5-7-5-3/5-||
|                                                          . . . . .                         |
|                                                                                            |
|                                                                                            |
|-----------------|------------------|-----------------|------------------|-----------------||
|-----------------|------------------|-----------------|-----------------*|-----------------||
|-9-9-9-9-9-9-9-9-|------------------|-9-9-9-9-9-9-9-9-|------------------|-----------------||
|-----------------|-9-9-9-9-9-9-9-9--|-----------------|------------------|-----------------||
|-7-7-7-7-7-7-7-7-|------------------|-7-7-7-7-7-7-7-7-|-9---5-7-9-7-5/7-*|-9-7-5-7-9-7-5/7-||
|-----------------|-7-7-7-7-7-7-7-7--|-----------------|-7-0-3-5-7-5-3/5--|-7-5-3-5-7-5-3/5-||
                                                           . . . . .


Outro (2:47)
 3/4
||------------|------------|------------|--------------|
||------------|------------|------------|--------------|
||------------|------------|------------|--------------|
||-    -------|-    -------|-    -------|-   -----   --|
||------222---|------222---|------222---|-----222------|
||------000---|------000---|------000---|-----000------|
|       ...          ...          ...         ...      |
|                                                      |
|                                                      |
||------------|------------|------------|--------------|
||------------|------------|------------|--------------|
||------------|------------|------------|--------------|
||-----    ---|-----    ---|-----    ---|-----   ------|
||-222--------|-222--------|-222--------|-222-----222--|
||-000--------|-000--------|-000--------|-000-----000--|
   ...          ...          ...          ...     ...


4/4
|----------------|----------------|----------------||
|----------------|----------------|----------------||
|----------------|----------------|----------------||
|-2--------------|-(2)------------|-(2)------------||
|-2--------------|-(2)------------|-(2)------------||
|-0--------------|-(0)------------|-(0)------------||
|                                                   |
|                                                   |
|                                                   |
|----------------|----------------|----------------||
|----------------|----------------|----------------||
|----------------|----------------|----------------||
|-2--------------|-(2)------------|-(2)------------||
|-2--------------|-(2)------------|-(2)------------||
|-0--------------|-(0)------------|-(0)------------||





Comments


Popular Vehemence tabs & chords
Alone In Your Presence Tabs
By Your Bedside Tabs
Devour The Rotten Flesh Intro Tabs
I Didn't Kill Her Tabs
Kill For God Tabs
Last Fantasy Of Christ (Intro) Tabs
Last Fantasy Of Christ Intro 1 Tabs
Made For Her Jesus (Intro) Tabs
Spirit Of The Soldier Intro Tabs
Spirit Of The Soldier Intro 1 Tabs


Song lyrics



↑ Back to top | Tablatures and chords are parodies/interpretations of the original songs. You may use it for private study, scholarship, research or language learning purposes only
© 2014 AZChords.com Contact us | Privacy policy | DMCA | Add/correct tabs | Request tabs | Top 50 tabs