>
 >
Kill For God

Kill For God Guitar Tabs

Vehemence - Kill For God chords, tabs, tablatures, lyrics

Guitar lessons | Add/correct | Request | Top 50 tabs Artists:  A B C D E F G H I J K L M N O P Q R S T U V W X Y Z 0-9

Kill For God Guitar Tabs – Vehemence

CD, Sheet music, Poster

Do you like Kill For God? Share with your friends now
Tabs
Artist : Vehemence
Song   : Kill For God
Album  : Helping The World to See
Tuning : B E A D F# B

Riff 1 0:00 to 0:31

|------------------------------------|
|-o------4-----------4---------------|
|------6---6-4-----6---6-3-----------|
|------------------------------------|
|-o--6-----------6-----------6-------|
|---4-----------4-----------4---4-2--|

|--------------------------------------------|
|-------4-----------4-----------------4-2--o-|
|-----6---6-3-----6---6-4-----6---5----------|
|--------------------------------------------|
|---7-----------7-----------7---7---6------o-|
|-0-----------0-----------0------------------|

Riff 2 0:32-0:59

|-----------------------------------|
|-----------------------------------|
|-----------------------------------|
|-----------------------------------|
|-7-7-7-6-6-6-6-6-6-6-6-6-4-6-464-2-|
|-4-4-4-4-4-4-4-4-4-4-4-4-----------|


|---------------------------------|
|---------------------------------|
|---------------------------------|
|---------------------------------|
|-4-4-4-4-4-6-2-2-2-2-2-2-2-2-2-2-|
|-0-0-0-0-0-0-0-0-0-0-0-0-0-0-0-0-|
The second time this above riff is played.

|------------------------------------|
|------------------------------------|
|------------------------------------|
|------------------------------4-4-4-|
|-4-4-4-4-4-6-2-2-2-2-2-2------2-2-2-|
|-0-0-0-0-0-0-0-0-0-0-0-0--0-0-------|

Riff 1 1:00-1:15

|------------------------------------|
|-o------4-----------4---------------|
|------6---6-4-----6---6-3-----------|
|------------------------------------|
|-o--6-----------6-----------6-------|
|---4-----------4-----------4---4-2--|

|--------------------------------------------|
|-------4-----------4-----------------4-2--o-|
|-----6---6-3-----6---6-4-----6---5----------|
|--------------------------------------------|
|---7-----------7-----------7---7---6------o-|
|-0-----------0-----------0------------------|

Riff 2 1:16-1:42

|-----------------------------------|
|-----------------------------------|
|-----------------------------------|
|-----------------------------------|
|-7-7-7-6-6-6-6-6-6-6-6-6-4-6-464-2-|
|-4-4-4-4-4-4-4-4-4-4-4-4-----------|


|---------------------------------|
|---------------------------------|
|---------------------------------|
|---------------------------------|
|-4-4-4-4-4-6-2-2-2-2-2-2-2-2-2-2-|
|-0-0-0-0-0-0-0-0-0-0-0-0-0-0-0-0-|


|------------------------------------|
|------------------------------------|
|------------------------------------|
|------------------------------4-4-4-|
|-4-4-4-4-4-6-2-2-2-2-2-2------2-2-2-|
|-0-0-0-0-0-0-0-0-0-0-0-0--0-0-------|

Next riff is at 1:45 now

Riff 3
Guitar 1 1:43-2:10

|---------------------------------|
|---------------------------------|
|---------------------------------|
|---------------------------------|
|-2-2-2-2-2-2-2-2-2-2-2-2-2-4-4-4-|
|-0-0-0-0-0-0-0-0-0-0-0-0-0-2-2-2-|

|---------------------------------|
|---------------------------------|
|---------------------------------|
|---------------------------------|
|-6-6-6-6-6-6-6-6--6-6-6-6-6-4/---|
|-4-4-4-4-4-4-4-4--7-6-7-6-7-2/---|

                             ^ this 
is a press down on the floyd rose bending 
up the notes 2 notes that way, yes it 
does sound different. 

Riff 4 2:11-2:39

Guitar 1 
Repeat four times 

|-------------------------------------------------------------|
|-------------------------------------------------------------|
|-------------------------------------------------------------|
|--------------------------------------------------66---66----|
|-22---22---22---22---22---44---66---66---66---66--44---44----|
|-00---00---00---00---00---22---44---44---44---44--44---44----|

The riff then breaks into a harmony between the 2 times 
at 2:25-2:39 (Double Picked)

Guitar 1 Harmony (This is the higher harmony)

|------------------------------------------------------|
|-16-14-----16-14-----16-14-----16-14-----12----12--14-|
|-------13--------13--------13--------13-----13--------|
|------------------------------------------------------|
|------------------------------------------------------|
|------------------------------------------------------|

|------------------------------------------------------------|
|-16-14-12---16-14-12----16-14-12----16-14-12---12----14--12-|
|--------------------------------------------------12--------|
|------------------------------------------------------------|
|------------------------------------------------------------|
|------------------------------------------------------------|

Riff 2

|-----------------------------------|
|-----------------------------------|
|-----------------------------------|
|-----------------------------------|
|-7-7-7-6-6-6-6-6-6-6-6-6-4-6-464-2-|
|-4-4-4-4-4-4-4-4-4-4-4-4-----------|


|---------------------------------|
|---------------------------------|
|---------------------------------|
|---------------------------------|
|-4-4-4-4-4-6-2-2-2-2-2-2-2-2-2-2-|
|-0-0-0-0-0-0-0-0-0-0-0-0-0-0-0-0-|
The second time this above riff is played.

|------------------------------------|
|------------------------------------|
|------------------------------------|
|------------------------------4-4-4-|
|-4-4-4-4-4-6-2-2-2-2-2-2------2-2-2-|
|-0-0-0-0-0-0-0-0-0-0-0-0--0-0-------|

Riff 3

|---------------------------------|
|---------------------------------|
|---------------------------------|
|---------------------------------|
|-2-2-2-2-2-2-2-2-2-2-2-2-2-4-4-4-|
|-0-0-0-0-0-0-0-0-0-0-0-0-0-2-2-2-|

|---------------------------------|
|---------------------------------|
|---------------------------------|
|---------------------------------|
|-6-6-6-6-6-6-6-6--6-6-6-6-6-4/---|
|-4-4-4-4-4-4-4-4--7-6-7-6-7-2/---|

Thatís it Iím pretty sure this is 100% correct.
Please rate high it took a long time





Comments


Popular Vehemence tabs & chords
Alone In Your Presence Tabs
By Your Bedside Tabs
By Your Bedside 1 Tabs
I Didn't Kill Her Tabs
I Take Your Life Tabs
Last Fantasy Of Christ (Intro) Tabs
Last Fantasy Of Christ Intro 1 Tabs
Made For Her Jesus (Intro) Tabs
Spirit Of The Soldier Intro 1 Tabs
To The Taste Tabs


Song lyrics



↑ Back to top | Tablatures and chords are parodies/interpretations of the original songs. You may use it for private study, scholarship, research or language learning purposes only
© 2014 AZChords.com Contact us | Privacy policy | DMCA | Add/correct tabs | Request tabs | Top 50 tabs