>
 >
I Take Your Life

I Take Your Life Guitar Tabs

Vehemence - I Take Your Life chords, tabs, tablatures, lyrics

Guitar lessons | Add/correct | Request | Top 50 tabs Artists:  A B C D E F G H I J K L M N O P Q R S T U V W X Y Z 0-9

I Take Your Life Guitar Tabs – Vehemence

CD, Sheet music, Poster

Do you like I Take Your Life? Share with your friends now
Tabs
Vehemence - I Take Your Life
The Thoughts From Which I Hide (1999)
Tuning: 2.5 Steps Down BEADF#B

-------------------------
Key:
-------------------------
.    Palm Mute
~    Vibrato
/    Slide Up
\    Slide Down
()   Sustained Note
h    Hammer-On
p    Pull-Off
b    Bend
r    Release
ah   Artificial Harmonic
rit. Gradually Slow Down
-------------------------

          Note:
           ---------------------
          | Left Guitar: Above  |
          | Right Guitar: Below |
           ---------------------

Riff A (0:00) T=170
 4/4
||----------------------------------|---------------------------|
||*---------------------------------|--------------------------*|
||----------------------------------|---------------------------|
||----------------------------------|---------------------------|
||*-----------------6-6-6-6-9-9-9-9-|-5--5--5--5--5-5-5--5--5--*|
||--5-5-5-5-8-8-8-8-----------------|-4--4--4--4--4-4-4--4--4---|
|                                                               |
|                                                               |
||----------------------------------|---------------------------|
||*---------------------------------|--------------------------*|
||----------------------------------|---------------------------|
||----------------------------------|---------------------------|
||*-----------------6-6-6-6-9-9-9-9-|-5--5--5--5--5-5-5--5--5--*|
||--5-5-5-5-8-8-8-8-----------------|-4--4--4--4--4-4-4--4--4---|

                                    ___________________________
                                   |1                        2x|
|----------------------------------|---------------------------||
|*---------------------------------|--------------------------*||
|----------------------------------|---------------------------||
|----------------------------------|---------------------------||
|*-----------------6-6-6-6-9-9-9-9-|-5--5--5--5--5-5-5--5--5--*||
|--5-5-5-5-8-8-8-8-----------------|-4--4--4--4--4-4-4--4--4---||
|                                                               |
|                                                               |
|----------------------------------|---------------------------||
|*---------------------------------|--------------------------*||
|----------------------------------|---------------------------||
|------------------4-4-4-4-7-7-7-7-|---------------------------||
|*-3-3-3-3-6-6-6-6-----------------|-5--5--5--5--5-5-5--5--5--*||
|----------------------------------|-4--4--4--4--4-4-4--4--4---||



Riff B (0:10)
 6/4
  __________________________
 |2                                                                             3/4
||--------------------------|-------------------------|-------------------------|--------------||
||*-------------------------|-------------------------|-------------------------|-------------*||
||--------------------------|-------------------------|-------------------------|--------------||
||--------------------------|-------------------------|-------------------------|--------------||
||*-5-----4-----3---4---5---|---4-----33--44--8-----7-|-----6---7---8-----7-----|-66--77--66--*||
||----4-3---3-2---2---3---3-|-2---3-2---2---3---7-6---|-6-5---5---6---6-5---6-5-|---5---5---5--||
|     . .   . .   .   .   .   .   . .   .   .   . .   | . .   .   .   . .   . .     .   .   .   |
|                                                     |                                         |
||--------------------------|-------------------------|-------------------------|--------------||
||*-------------------------|-------------------------|-------------------------|-------------*||
||--------------------------|-------------------------|-------------------------|--------------||
||--------------------------|-------------------------|-------------------------|--------------||
||*-5-----4-----3---4---5---|---4-----33--44--5-----4-|-----3---4---5-----4-----|-33--44--33--*||
||----4-3---3-2---2---3---3-|-2---3-2---2---3---4-3---|-3-2---2---3---3-2---3-2-|---2---2---2--||
      . .   . .   .   .   .   .   . .   .   .   . .     . .   .   .   . .   . .     .   .   .


Riff A (0:25)
 4/4
||----------------------------------|---------------------------|
||*---------------------------------|--------------------------*|
||----------------------------------|---------------------------|
||----------------------------------|---------------------------|
||*-----------------6-6-6-6-9-9-9-9-|-5--5--5--5--5-5-5--5--5--*|
||--5-5-5-5-8-8-8-8-----------------|-4--4--4--4--4-4-4--4--4---|
|                                                               |
|                                                               |
||----------------------------------|---------------------------|
||*---------------------------------|--------------------------*|
||----------------------------------|---------------------------|
||----------------------------------|---------------------------|
||*-----------------6-6-6-6-9-9-9-9-|-5--5--5--5--5-5-5--5--5--*|
||--5-5-5-5-8-8-8-8-----------------|-4--4--4--4--4-4-4--4--4---|

                                    ___________________________
                                   |1                        2x|
|----------------------------------|---------------------------||
|*---------------------------------|--------------------------*||
|----------------------------------|---------------------------||
|----------------------------------|---------------------------||
|*-----------------6-6-6-6-9-9-9-9-|-5--5--5--5--5-5-5--5--5--*||
|--5-5-5-5-8-8-8-8-----------------|-4--4--4--4--4-4-4--4--4---||
|                                                              ||
|                                                              ||
|----------------------------------|---------------------------||
|*---------------------------------|--------------------------*||
|----------------------------------|---------------------------||
|------------------4-4-4-4-7-7-7-7-|---------------------------||
|*-3-3-3-3-6-6-6-6-----------------|-5--5--5--5--5-5-5--5--5--*||
|----------------------------------|-4--4--4--4--4-4-4--4--4---||



Riff B (0:34)
 6/4
  __________________________
 |2                                                                             3/4
||--------------------------|-------------------------|-------------------------|--------------||
||*-------------------------|-------------------------|-------------------------|-------------*||
||--------------------------|-------------------------|-------------------------|--------------||
||--------------------------|-------------------------|-------------------------|--------------||
||*-5-----4-----3---4---5---|---4-----33--44--8-----7-|-----6---7---8-----7-----|-66--77--66--*||
||----4-3---3-2---2---3---3-|-2---3-2---2---3---7-6---|-6-5---5---6---6-5---6-5-|---5---5---5--||
|     . .   . .   .   .   .   .   . .   .   .   . .   | . .   .   .   . .   . .     .   .   .   |
|                                                     |                                         |
||--------------------------|-------------------------|-------------------------|--------------||
||*-------------------------|-------------------------|-------------------------|-------------*||
||--------------------------|-------------------------|-------------------------|--------------||
||--------------------------|-------------------------|-------------------------|--------------||
||*-5-----4-----3---4---5---|---4-----33--44--5-----4-|-----3---4---5-----4-----|-33--44--33--*||
||----4-3---3-2---2---3---3-|-2---3-2---2---3---4-3---|-3-2---2---3---3-2---3-2-|---2---2---2--||
      . .   . .   .   .   .   .   . .   .   .   . .     . .   .   .   . .   . .     .   .   .


Riff C (0:48)
 3/4                                           4/4                3/4
||---------------|--------------|--------------|------------------|--------------|
||*--------------|--------------|--------------|------------------|--------------|
||---------------|--------------|--------------|------------------|--------------|
||---------------|-7------------|--------------|------------------|--------------|
||*-2------------|-5------------|-4------------|------------------|--------------|
||--0-------0000-|-5-------0000-|-2-------0-00-|-0-0-0-000-0-0-00-|-0-0-0-000-0--|
|           ....           ....           . ..   . . . ... . . ..   . . . ... .  |
|                                                                                |
||---------------|--------------|--------------|------------------|--------------|
||*--------------|--------------|--------------|------------------|--------------|
||---------------|--------------|--------------|------------------|--------------|
||---------------|-7------------|--------------|-------------9----|---9-8--------|
||*-2------------|-5------------|-4-------9----|---9-10----10-----|---------9-10-|
||--0-------0000-|-5-------0000-|-2---------0--|-0-----0-0-----0--|-0-----0------|
            ....           ....             .    .     . .     .    .     .

                                             ________________________________
                                            |1,2          4/4              3x|
|--------------|--------------|-------------|-------------|------------------|
|--------------|--------------|-------------|-------------|-----------------*|
|--------------|--------------|-------------|-------------|------------------|
|--------------|-7------------|---------9---|---9-8-----8-|------------------|
|-2------------|-5------------|-5-----------|-------------|-10----109-----9-*|
|-0-------0000-|-5-------0000-|-3---------0-|-0-----0-0---|---7-8-----7-8----|
|         ....           ....             .   .     . .       . .     . .    |
|                                                                            |
|--------------|--------------|-------------|-------------|------------------|
|--------------|--------------|-------------|-------------|-----------------*|
|--------------|--------------|-------------|-------------|------------------|
|--------------|-7------------|---------9---|---9-8-----8-|------------------|
|-2------------|-5------------|-5-----------|-------------|-10----109-----9-*|
|-0-------0000-|-5-------0000-|-3---------0-|-0-----0-0---|---7-8-----7-8----|
          ....           ....             .   .     . .       . .     . .

4/4
 _________________
|3          rit.- - - - - - - - - - 
|-----------------|-----------------||
|-----------------|-----------------||
|-----------------|-----------------||
|---9-8-----8-----|-----------------||
|-------------10--|---109-109-----9-||
|-0-----0-0-----7-|-8---------6-7---||
| .     . .     .   .         . .    |
|                                    |
|-----------------|-----------------||
|-----------------|-----------------||
|-----------------|-----------------||
|---9-8-----8-----|-----------------||
|-------------10--|---109-109-----9-||
|-0-----0-0-----7-|-8---------6-7---||
  .     . .     .   .         . .


Riff D (1:24) T=100
||----------------------------------|---------------------------------|
||*---------------------------------|---------------------------------|
||----------------------------------|---------------------------------|
||--9-------8-----------------------|-----------------9-------11------|
||*-7-------6-------2-------2-2-2-2-|-2-------2-2-2-2-7-------9-------|
||--7-------6-------0-------0-0-0-0-|-0-------0-0-0-0-7-------9-------|
|                   .       . . . .   .       . . . .                 |
|                                                                     |
||----------------------------------|---------------------------------|
||*---------------------------------|---------------------------------|
||----------------------------------|---------------------------------|
||--9-------8-----------------------|-----------------9-------11------|
||*-7-------6-------2-------2-2-2-2-|-2-------2-2-2-2-7-------9-------|
||--7-------6-------0-------0-0-0-0-|-0-------0-0-0-0-7-------9-------|
                    .       . . . .   .       . . . .


|---------------------------------|--------------------------------|
|---------------------------------|-------------------------------*|
|---------------------------------|--------------------------------|
|-9-------8-----------------------|--------------------------------|
|-7-------6-------2-------2-2-2-2-|-4-------4-4-4-4-5--5--5-5-5-5-*|
|-7-------6-------0-------0-0-0-0-|-2-------2-2-2-2-3--3--3-3-3-3--|
|                 .       . . . .   .       . . . . .  .  . . . .  |
|                                                                  |
|---------------------------------|--------------------------------|
|---------------------------------|-------------------------------*|
|---------------------------------|--------------------------------|
|-9-------8-----------------------|--------------------------------|
|-7-------6-------2-------2-2-2-2-|-4-------4-4-4-4-5--5--5-5-5-5-*|
|-7-------6-------0-------0-0-0-0-|-2-------2-2-2-2-3--3--3-3-3-3--|
                  .       . . . .   .       . . . . .  .  . . . .   


|----------------------------------|----------------------------------|
|*---------------------------------|----------------------------------|
|----------------------------------|----------------------------------|
|--9-------8-----------------------|-----------------9-------11-------|
|*-7-------6-------2-------2-2-2-2-|-2-------2-2-2-2-7-------9--------|
|--7-------6-------0-------0-0-0-0-|-0-------0-0-0-0-7-------9--------|
|                  .       . . . .   .       . . . .                  |
|                                                                     |
|----------------------------------|----------------------------------|
|*---------------------------------|----------------------------------|
|--4444444433333333----------------|-----------------4444444466666666-|
|----------------------------------|----------------------------------|
|*-----------------2-------2-2-2-2-|-2-------2-2-2-2------------------|
|------------------0-------0-0-0-0-|-0-------0-0-0-0------------------|
                   .       . . . .   .       . . . .


|---------------------------------|--------------------------------||
|---------------------------------|-------------------------------*||
|---------------------------------|--------------------------------||
|-9-------8-----------------------|--------------------------------||
|-7-------6-------2-------2-2-2-2-|-4-------4-4-4-4-5--5--5-5-5-5-*||
|-7-------6-------0-------0-0-0-0-|-2-------2-2-2-2-3--3--3-3-3-3--||
|                 .       . . . .   .       . . . . .  .  . . . .   |
|                                                                   |
|---------------------------------|--------------------------------||
|---------------------------------|-------------------------------*||
|-4444444433333333----------------|--------------------------------||
|---------------------------------|--------------------------------||
|-----------------2-------2-2-2-2-|-4-------4-4-4-4-5--5--5-5-5-5-*||
|-----------------0-------0-0-0-0-|-2-------2-2-2-2-3--3--3-3-3-3--||
                  .       . . . .   .       . . . . .  .  . . . .


Riff E (2:06) T=150
 6/4                                                                            3/4
||--------------------------|-------------------------|-------------------------|--------------|
||*-------------------------|-------------------------|-------------------------|-------------*|
||--------------------------|-------------------------|-------------------------|--------------|
||--7-----6-----5---6---7---|---6-----55--66--7-----6-|-----5---6---7-----6-----|-55--66--55---|
||*-5-6-5-4-5-4-3-4-4-5-5-6-|-5-4-5-4-334-445-5-6-5-4-|-5-4-3-4-4-5-5-6-5-4-5-4-|-334-445-334-*|
||----4-3---3-2---2---3---4-|-3---3-2---2---3---4-3---|-3-2---2---3---4-3---3-2-|---2---3---2--|
|   . . . . . . . . . . . .   . . . . ... ... . . . .   . . . . . . . . . . . .   ... ... ...  |
|                                                                                              |
||--------------------------|-------------------------|-------------------------|--------------|
||*-------------------------|-------------------------|-------------------------|-------------*|
||--------------------------|-------------------------|-------------------------|--------------|
||--7-----6-----5---6---7---|---6-----55--66--7-----6-|-----5---6---7-----6-----|-55--66--55---|
||*-5-6-5-4-5-4-3-4-4-5-5-6-|-5-4-5-4-334-445-5-6-5-4-|-5-4-3-4-4-5-5-6-5-4-5-4-|-334-445-334-*|
||----4-3---3-2---2---3---4-|-3---3-2---2---3---4-3---|-3-2---2---3---4-3---3-2-|---2---3---2--|
    . . . . . . . . . . . .   . . . . ... ... . . . .   . . . . . . . . . . . .   ... ... ...


 6/4                                                                            3/4
|--------------------------|-------------------------|-------------------------|--------------||
|*-------------------------|-------------------------|-------------------------|-------------*||
|--------------------------|-------------------------|-------------------------|--------------||
|--7-----6-----5---6---7---|---6-----55--66--7-----6-|-----5---6---7-----6-----|-55--66--55---||
|*-5-6-5-4-5-4-3-4-4-5-5-6-|-5-4-5-4-334-445-5-6-5-4-|-5-4-3-4-4-5-5-6-5-4-5-4-|-334-445-334-*||
|----4-3---3-2---2---3---4-|-3---3-2---2---3---4-3---|-3-2---2---3---4-3---3-2-|---2---3---2--||
|   . . . . . . . . . . . .   . . . . ... ... . . . .   . . . . . . . . . . . .   ... ... ...  |
|                                                                                              |
|--------------------------|-------------------------|-------------------------|--------------||
|*-------------------------|-------------------------|-------------------------|-------------*||
|--------------ah--ah------|-------------------------|-------------------------|--------------||
|--7-----6-----5b--6b--7---|---6-----55--66--7-----6-|-----5---6---7-----6-----|-55--66--55---||
|*-5-6-5-4-5-4---4---5-5-6-|-5-4-5-4-334-445-5-6-5-4-|-5-4-3-4-4-5-5-6-5-4-5-4-|-334-445-334-*||
|----4-3---3-2---2---3---4-|-3---3-2---2---3---4-3---|-3-2---2---3---4-3---3-2-|---2---3---2--||
     . . . . .   .   . . .   . . . . ... ... . . . .   . . . . . . . . . . . .   ... ... ...


Riff A (2:26) T=170
 4/4
||----------------------------------|---------------------------|
||*---------------------------------|--------------------------*|
||----------------------------------|---------------------------|
||----------------------------------|---------------------------|
||*-----------------6-6-6-6-9-9-9-9-|-5--5--5--5--5-5-5--5--5--*|
||--5-5-5-5-8-8-8-8-----------------|-4--4--4--4--4-4-4--4--4---|
|                                                               |
|                                                               |
||----------------------------------|---------------------------|
||*---------------------------------|--------------------------*|
||----------------------------------|---------------------------|
||----------------------------------|---------------------------|
||*-----------------6-6-6-6-9-9-9-9-|-5--5--5--5--5-5-5--5--5--*|
||--5-5-5-5-8-8-8-8-----------------|-4--4--4--4--4-4-4--4--4---|

                                    ___________________________
                                   |1                        2x|
|----------------------------------|---------------------------||
|*---------------------------------|--------------------------*||
|----------------------------------|---------------------------||
|----------------------------------|---------------------------||
|*-----------------6-6-6-6-9-9-9-9-|-5--5--5--5--5-5-5--5--5--*||
|--5-5-5-5-8-8-8-8-----------------|-4--4--4--4--4-4-4--4--4---||
|                                                              ||
|                                                              ||
|----------------------------------|---------------------------||
|*---------------------------------|--------------------------*||
|----------------------------------|---------------------------||
|------------------4-4-4-4-7-7-7-7-|---------------------------||
|*-3-3-3-3-6-6-6-6-----------------|-5--5--5--5--5-5-5--5--5--*||
|----------------------------------|-4--4--4--4--4-4-4--4--4---||



Riff F (2:36)
4/4
  __________________
 |2 
||------------------|-----------------|-----------------|-----------------|
||*-----------------|-----------------|-----------------|-----------------|
||------------------|-----------------|-----------------|-----------------|
||------------------|-----------------|---------7-------|-----6-----------|
||*-8-----7-----6---|-7---8-----7-----|-66--77--5---6---|-5---4---5---4---|
||----7-6---6-5---5-|---6---7-6---6-5-|---5---6-----4---|-3-------3---2---|
|     . .   . .   .     .   . .   . .     .   . .   .     .   .   .   .   |
|                                                                         |
||------------------|-----------------|-----------------|-----------------|
||*-----------------|-----------------|-----------------|-----------------|
||------------------|-----------------|-----------------|-----------------|
||------------------|-----------------|---------7-------|-----6-----------|
||*-8-----7-----6---|-7---8-----7-----|-66--77--5---6---|-5---4---5---4---|
||----7-6---6-5---5-|---6---7-6---6-5-|---5---6-----4---|-3-------3---2---|
      . .   . .   .     .   . .   . .     .   . .   .     .   .   .   .   

 ________________________________________________________________     
|1,2                                                  2/4      3x|
|-----------------|-----------------|-----------------|----------||
|-----------------|-----------------|-----------------|---------*||
|-----------------|-----------------|-----------------|----------||
|-5-------6-------|-7-----------6---|---------5-5-----|-6-6------||
|-3---4---4---5---|-5---6---5---4---|-5---4---3-3-4---|-4-4-5---*||
|-----2-------3---|-----4---3-------|-3---2-------2---|-----3----||
| .   .   .   .     .   .   .   .     .   .   . . .     . . .     |
|                                                                 |
|-----------------|-----------------|-----------------|----------||
|-----------------|-----------------|-----------------|---------*||
|-----------------|-----------------|-----------------|----------||
|-5-------6-------|-7-----------6---|---------5-5-----|-6-6------||
|-3---4---4---5---|-5---6---5---4---|-5---4---3-3-4---|-4-4-5---*||
|-----2-------3---|-----4---3-------|-3---2-------2---|-----3----||
  .   .   .   .     .   .   .   .     .   .   . . .     . . .


 4/4
  _________________
 |3                                                    2/4
||-----------------|-----------------|-----------------|---------||
||-----------------|-----------------|-----------------|---------||
||-----------------|-----------------|-----------------|---------||
||-5-------6-------|-7-----------6---|---------5-5-----|-6-6-----||
||-3---4---4---5---|-5---6---5---4---|-5---4---3-3-4---|-4-4-5---||
||-----2-------3---|-----4---3-------|-3---2-------2---|-----3---||
|  .   .   .   .     .   .   .   .     .   .   . . .     . . .    |
|                                                                 |
||-----------------|-----------------|-----------------|---------||
||-----------------|-----------------|-----------------|---------||
||-ah------ah------|-----------------|-----------------|---------||
||-5b------6b------|-7-----------6---|---------5-5-----|-6-6-----||
||-----4-------5---|-5---6---5---4---|-5---4---3-3-4---|-4-4-5---||
||-----2-------3---|-----4---3-------|-3---2-------2---|-----3---||
       .       .     .   .   .   .     .   .   . . .     . . .





Comments


Popular Vehemence tabs & chords
Alone In Your Presence Tabs
By Your Bedside Tabs
By Your Bedside 1 Tabs
Devour The Rotten Flesh Intro Tabs
Kill For God Tabs
Last Fantasy Of Christ (Intro) Tabs
Spirit Of The Soldier Intro Tabs
Spirit Of The Soldier Intro 1 Tabs
To The Taste Tabs
We Are All Dying Tabs


Song lyrics



↑ Back to top | Tablatures and chords are parodies/interpretations of the original songs. You may use it for private study, scholarship, research or language learning purposes only
© 2014 AZChords.com Contact us | Privacy policy | DMCA | Add/correct tabs | Request tabs | Top 50 tabs