» » »

Traffic Jam Tabs (ver.1)

Artists:  A B C D E F G H I J K L M N O P Q R S T U V W X Y Z # 

Traffic Jam Tabs (ver.1)

Vega4
Rating:
0/5 (0 votes)

Hard to play? Try these video lessons and learn fast.
                


Vega 4 are one of my favourite bands - 'You and others' is definetly up there with snow
who I'm also a big fan of. Anyway I enjoyed tabbing this as it was so easy and didnt
long at all! hope you enjoy it, it's fun to play and never seems to get boring despite 
so simple. I tabbed it all by ear so may not be 100% but I think it's very close.

Intro rhythm guitar 00:07

e---------------|-----------------------------||
b---------------|-----------------------------||
g---------------|------------------PLAY-------||
d--10-10-10-10--|-10-10-10-10-------SIX-------||
a--10-10-10-10--|-10-10-10-10-------TIMES-----||
e--8--8--8--8---|-8--8--8--8------------------||

2nd Intro guitar - 00:09

e--------------|------------------------------||
b--------------|------------------------------||
g--5--5--5--5--|-5--5--5--5---------PLAY------||
d--x--x--x--x--|-x--x--x--x----------FIVE-----||
a--3--3--3--3--|-3--3--3--3-----------TIMES---||
e--------------|------------------------------||

Intro solo - 00:10

e--------------------------------|
b--------------------------------|
g--7--5--7--5--7--9--7--5--------|
d---------------------------3----|
a---------------------------3----|
e---------------------------1----|

00:18

e---------------|-------------------------------||
b---------------|-------------------------------||
g---------------|-------------------PLAY--------||
d--10-10-10-10--|-10-10-10-10--------TWO--------||
a--10-10-10-10--|-10-10-10-10--------TIMES------||
e--8--8--8--8---|-8--8--8--8--------------------||


e--------------|--------------------------------||
b--------------|--------------------------------||
g--------------|---------------------PLAY-------||
d--9--9--9--9--|-9--9--9--9-----------TWO-------||
a--10-10-10-10-|-10-10-10-10----------TIMES-----||
e--7--7--7--7--|-7--7--7--7---------------------||


e--------------|--------------------------------||
b--------------|--------------------------------||
g--------------|----------------------PLAY------||
d--7--7--7--7--|-7--7--7--7------------TWO------||
a--7--7--7--7--|-7--7--7--7------------TIMES----||
e--5--5--5--5--|-5--5--5--5---------------------||

e--------------|--------------------------------||
b--------------|--------------------------------||
g--------------|-----------------------PLAY-----||
d--3--3--3--3--|-3--3--3--3-------------TWO-----||
a--3--3--3--3--|-3--3--3--3-------------TIMES---||
e--1--1--1--1--|-1--1--1--1---------------------||

e---------------|-------------------------------||
b---------------|-------------------------------||
g---------------|-------------------PLAY--------||
d--10-10-10-10--|-10-10-10-10--------TWO--------||
a--10-10-10-10--|-10-10-10-10--------TIMES------||
e--8--8--8--8---|-8--8--8--8--------------------||


e--------------|--------------------------------||
b--------------|--------------------------------||
g--------------|---------------------PLAY-------||
d--9--9--9--9--|-9--9--9--9-----------TWO-------||
a--10-10-10-10-|-10-10-10-10----------TIMES-----||
e--7--7--7--7--|-7--7--7--7---------------------||


e--------------|--------------------------------||
b--------------|--------------------------------||
g--------------|----------------------PLAY------||
d--7--7--7--7--|-7--7--7--7------------TWO------||
a--7--7--7--7--|-7--7--7--7------------TIMES----||
e--5--5--5--5--|-5--5--5--5---------------------||

e--------------|--------------------------------||
b--------------|--------------------------------||
g--------------|-----------------------PLAY-----||
d--3--3--3--3--|-3--3--3--3-------------TWO-----||
a--3--3--3--3--|-3--3--3--3-------------TIMES---||
e--1--1--1--1--|-1--1--1--1---------------------||

00:49 chorus- rhythm guitar

e--------------|-------------|--------------|-------------------|
b--------------|-------------|--------------|-------------------|
g--5--5--5--5--|-5--5--5--5--|--4--4--4--4--|-4--4--4--4--------|
d--5--5--5--5--|-5--5--5--5--|--5--5--5--5--|-5--5--5--5--------|
a--3--3--3--3--|-3--3--3--3--|--2--2--2--2--|-2--2--2--2--------|
e--------------|-------------|--------------|-------------------|

e--------------|--------------------------------||
b--------------|--------------------------------||    PLAY 6 BARS
g--------------|-----------------------PLAY-----||     4 TIMES
d--3--3--3--3--|-3--3--3--3-------------TWO-----||
a--3--3--3--3--|-3--3--3--3-------------TIMES---||
e--1--1--1--1--|-1--1--1--1---------------------||


00:49 - lead guitar

e----------|--------|----------|----------------||
b----------|----3-3-|----------|----5-5---------||  PLAY THIS
g--4-4-4-4-|-5-5----|--4-4-4-4-|-5-5------------||   EIGHT TIMES
d----------|--------|----------|----------------||
a----------|--------|----------|----------------||
e----------|--------|----------|----------------||

1:20

e---------------|-------------------------------||
b---------------|-------------------------------||
g---------------|-------------------PLAY--------||
d--10-10-10-10--|-10-10-10-10--------TWO--------||
a--10-10-10-10--|-10-10-10-10--------TIMES------||
e--8--8--8--8---|-8--8--8--8--------------------||


e--------------|--------------------------------||
b--------------|--------------------------------||
g--------------|---------------------PLAY-------||
d--9--9--9--9--|-9--9--9--9-----------TWO-------||
a--10-10-10-10-|-10-10-10-10----------TIMES-----||
e--7--7--7--7--|-7--7--7--7---------------------||


e--------------|--------------------------------||
b--------------|--------------------------------||
g--------------|----------------------PLAY------||
d--7--7--7--7--|-7--7--7--7------------TWO------||
a--7--7--7--7--|-7--7--7--7------------TIMES----||
e--5--5--5--5--|-5--5--5--5---------------------||

e--------------|--------------------------------||
b--------------|--------------------------------||
g--------------|-----------------------PLAY-----||
d--3--3--3--3--|-3--3--3--3-------------TWO-----||
a--3--3--3--3--|-3--3--3--3-------------TIMES---||
e--1--1--1--1--|-1--1--1--1---------------------||

e---------------|-------------------------------||
b---------------|-------------------------------||
g---------------|-------------------PLAY--------||
d--10-10-10-10--|-10-10-10-10--------TWO--------||
a--10-10-10-10--|-10-10-10-10--------TIMES------||
e--8--8--8--8---|-8--8--8--8--------------------||


e--------------|--------------------------------||
b--------------|--------------------------------||
g--------------|---------------------PLAY-------||
d--9--9--9--9--|-9--9--9--9-----------TWO-------||
a--10-10-10-10-|-10-10-10-10----------TIMES-----||
e--7--7--7--7--|-7--7--7--7---------------------||


e--------------|--------------------------------||
b--------------|--------------------------------||
g--------------|----------------------PLAY------||
d--7--7--7--7--|-7--7--7--7------------TWO------||
a--7--7--7--7--|-7--7--7--7------------TIMES----||
e--5--5--5--5--|-5--5--5--5---------------------||

e--------------|--------------------------------||
b--------------|--------------------------------||
g--------------|-----------------------PLAY-----||
d--3--3--3--3--|-3--3--3--3-------------TWO-----||
a--3--3--3--3--|-3--3--3--3-------------TIMES---||
e--1--1--1--1--|-1--1--1--1---------------------||


1:50 - chorus rhythm guitar

e--------------|-------------|--------------|-------------------|
b--------------|-------------|--------------|-------------------|
g--5--5--5--5--|-5--5--5--5--|--4--4--4--4--|-4--4--4--4--------|
d--5--5--5--5--|-5--5--5--5--|--5--5--5--5--|-5--5--5--5--------|
a--3--3--3--3--|-3--3--3--3--|--2--2--2--2--|-2--2--2--2--------|
e--------------|-------------|--------------|-------------------|

e--------------|--------------------------------||
b--------------|--------------------------------||    PLAY 6 BARS
g--------------|-----------------------PLAY-----||     4 TIMES
d--3--3--3--3--|-3--3--3--3-------------TWO-----||
a--3--3--3--3--|-3--3--3--3-------------TIMES---||
e--1--1--1--1--|-1--1--1--1---------------------||

1:50 - lead guitar

e----------|--------|----------|-----------------||
b----------|----3-3-|----------|----5-5----------||  PLAY THIS
g--4-4-4-4-|-5-5----|--4-4-4-4-|-5-5-------------||   EIGHT TIMES
d----------|--------|----------|-----------------||
a----------|--------|----------|-----------------||
e----------|--------|----------|-----------------||


02:21

e------------------|----------------------------------||
b------------------|----------------------------------||
g--12--12--12--12--|-12--12--12--12------PLAY---------||
d--x---x---x---x---|-x---x---x---x--------TWICE-------||
a--10--10--10--10--|-10--10--10--10-------------------||
e------------------|----------------------------------||


e--------------|-------------|--------------|--------------||
b--------------|-------------|--------------|--------------||
g--9--9--9--9--|-9--9--9--9--|--5--5--5--5--|-5--5--5--5---|| PLAY
d--x--x--x--x--|-x--x--x--x--|--x--x--x--x--|-x--x--x--x---|| PROGRESSION
a--7--7--7--7--|-7--7--7--7--|--3--3--3--3--|-3--3--3--3---|| TWICE
e--------------|-------------|--------------|--------------||

02:37 chorus- rhythm guitar

e--------------|-------------|--------------|-------------------|
b--------------|-------------|--------------|-------------------|
g--5--5--5--5--|-5--5--5--5--|--4--4--4--4--|-4--4--4--4--------|
d--5--5--5--5--|-5--5--5--5--|--5--5--5--5--|-5--5--5--5--------|
a--3--3--3--3--|-3--3--3--3--|--2--2--2--2--|-2--2--2--2--------|
e--------------|-------------|--------------|-------------------|

e--------------|--------------------------------||
b--------------|--------------------------------||    PLAY 6 BARS
g--------------|-----------------------PLAY-----||     4 TIMES
d--3--3--3--3--|-3--3--3--3-------------TWO-----||
a--3--3--3--3--|-3--3--3--3-------------TIMES---||
e--1--1--1--1--|-1--1--1--1---------------------||

03:07 lead guitar

e----------|--------|----------|----------------||
b----------|----3-3-|----------|----5-5---------||  PLAY THIS
g--4-4-4-4-|-5-5----|--4-4-4-4-|-5-5------------||   EIGHT TIMES
d----------|--------|----------|----------------||
a----------|--------|----------|----------------||
e----------|--------|----------|----------------||


03:07 chorus- rhythm guitar

e--------------|-------------|--------------|-------------------|
b--------------|-------------|--------------|-------------------|
g--5--5--5--5--|-5--5--5--5--|--4--4--4--4--|-4--4--4--4--------|
d--5--5--5--5--|-5--5--5--5--|--5--5--5--5--|-5--5--5--5--------|
a--3--3--3--3--|-3--3--3--3--|--2--2--2--2--|-2--2--2--2--------|
e--------------|-------------|--------------|-------------------|

e--------------|--------------------------------||
b--------------|--------------------------------||    PLAY 6 BARS
g--------------|-----------------------PLAY-----||     5 TIMES
d--3--3--3--3--|-3--3--3--3-------------TWO-----||
a--3--3--3--3--|-3--3--3--3-------------TIMES---||
e--1--1--1--1--|-1--1--1--1---------------------||

03:38 lead guitar

e--------------|-------------------------||
b--------------|-------------------------||    PLAY
g--------------|-------------------------||    TWICE
d--14--17--12--|-17--15--14--10----------||
a--x---x---x---|-x---x---x---x-----------||
e--12--15--10--|-15--13--12--8-----------||

Tablature Notation
x = muted

comments but constructive criticism only please.

12.04.08
            
Hard to play? Try these video lessons and learn fast. | Correct




comments powered by Disqus
↑ Back to top | Tablatures and chords are parodies/interpretations of the original songs. You may use it for private study, scholarship, research or language learning purposes only