» » »

Vega4, Life Is Beautiful Tabs (ver.4)

Artists:  A B C D E F G H I J K L M N O P Q R S T U V W X Y Z # 

Life Is Beautiful Tabs (ver.4)

Vega4 Tabs
Rating:
5/5 (3 votes)
Life Is Beautiful lessons Tabs too difficult? Try these video lessons and learn fast
                

Vega 4 recently broke up - tis a pity really. They were a fantastic band, one of my 
bands in fact. I was lucky that I got to see them play live. Regardless thought I'd give 
song a try - all by ear so may not be 100% but sounds close enough to me.


Intro - Lead Guitar

e------------------------------------------------------||
b------------------------------------------------------||
g------------------------------------------------------||   PLAY TWICE
d----11-11-11-11-/-9-9-9--/-6-6-6-6-/-7-7-7--0---------||
a-0----------------------------------------------------||
e------------------------------------------------------||

Intro - rhythm

e--------------------------|------------------|------------------------||
b--------------------------|------------------|------------------------||
g--------------------------|------------------|------------------------||
d--11-11-11-11-11-11-11-11-|--9-9-9-9-9-9-9-9-|--7-7-7-7-7-7-7-7-------||
a--x--x--x--x--x--x--x--x--|--x-x-x-x-x-x-x-x-|--x-x-x-x-x-x-x-x-------||
e--9--9--9--9--9--9--9--9--|--7-7-7-7-7-7-7-7-|--5-5-5-5-5-5-5-5-------||

e-----------------------------------||
b-----------------------------------||
g--7-7-7-7-7-7-7-7--- PLAY ---------||
d--x-x-x-x-x-x-x-x---- TWICE -------||
a--5-5-5-5-5-5-5-5------------------||
e-----------------------------------||


Verse 1 - lead guitar (00:22)

e--21---19----17-|-----21----19-----------||
b-----17----17---|--17----17-------22-----||
g----------------|--------------21--------||
d----------------|------------------------||
a----------------|------------------------||
e----------------|------------------------||

Verse 1 - rhythm

e--------------------------|------------------|------------------------||
b--------------------------|------------------|------------------------||
g--------------------------|------------------|------------------------||
d--11-11-11-11-11-11-11-11-|--9-9-9-9-9-9-9-9-|--7-7-7-7-7-7-7-7-------||
a--x--x--x--x--x--x--x--x--|--x-x-x-x-x-x-x-x-|--x-x-x-x-x-x-x-x-------||
e--9--9--9--9--9--9--9--9--|--7-7-7-7-7-7-7-7-|--5-5-5-5-5-5-5-5-------||

e-----------------------------------||
b-----------------------------------||
g--7-7-7-7-7-7-7-7--- PLAY ---------||
d--x-x-x-x-x-x-x-x---- TWICE -------||
a--5-5-5-5-5-5-5-5------------------||
e-----------------------------------||


00:41 - Bridge lead guitar

e----------12--|---------9---------------||
b-------10-----|------10------ PLAY -----||
g----11--------|----9--------- BOTH -----||
d--------------|--0----------- RIFFS ----||
a--0-----------|-------------- TWICE ----||
e--------------|-------------------------||

00:41 - rhythm guitar

e------------------|------------------|
b------------------|------------------|
g------------------|------------------|
d--7-7-7-7-7-7-7-7-|--6-6-6-6-6-6-6-6-|
a--x-x-x-x-x-x-x-x-|--x-x-x-x-x-x-x-x-|
e--5-5-5-5-5-5-5-5-|--4-4-4-4-4-4-4-4-|

e------------------|-------------------------------------||
b------------------|------------------------PLAY---------||
g------------------|--7-7-7-7-7-7-7-7--------THIS--------||
d--7-7-7-7-7-7-7-7-|--x-x-x-x-x-x-x-x---------TWICE------||
a--x-x-x-x-x-x-x-x-|--5-5-5-5-5-5-5-5--------------------||
e--5-5-5-5-5-5-5-5-|-------------------------------------||

e------------------------------------------------------------------------||
b------------------------------------------------------------------------||
g------------------------------------------------------------------------||
d------------------------------------------------------------------------||
a------------------------------------------------------------------------||
e------------------------------------------------------------------------||

e------------------------------------------------------------------------||
b------------------------------------------------------------------------||
g------------------------------------------------------------------------||
d------------------------------------------------------------------------||
a------------------------------------------------------------------------||
e------------------------------------------------------------------------||

comments but constructive criticism only please.
            

comments powered by Disqus
↑ Back to top | Vega4 Tabs for Life Is Beautiful. Lyrics for acoustic guitar and electric guitar. Tablatures and chords are parodies/interpretations of the original songs. You may use it for private study, scholarship, research or language learning purposes only